  0
SECTION
  2
HEADER
  9
$ACADVER
  1
AC1009
  9
$LIMMIN
 10
-240.8339503
 20
-252.122573
  9
$LIMMAX
 10
240.8339503
 20
252.122573
  9
$EXTMIN
 10
-200.6866253
 20
-210.0938108
  9
$EXTMAX
 10
200.6866253
 20
210.0938108
  0
ENDSEC
  0
SECTION
  2
TABLES
  0
TABLE
  2
LTYPE
 70
     8
  0
LTYPE
  2
CONTINUOUS
 70
    64
  3
Solid line
 72
    65
 73
     0
 40
           0
  0
LTYPE
  2
LTYPE_1
 70
    64
  3
...................
 72
    65
 73
     2
 40
     1.57577
 49
           0
 49
    -1.57577
  0
LTYPE
  2
LTYPE_2
 70
    64
  3
. . . . . . . . . .
 72
    65
 73
     2
 40
     3.15153
 49
           0
 49
    -3.15153
  0
LTYPE
  2
LTYPE_3
 70
    64
  3
-   -   -   -   -
 72
    65
 73
     2
 40
     12.6061
 49
     3.15153
 49
     -9.4546
  0
LTYPE
  2
LTYPE_4
 70
    64
  3
--  --  --  --  --
 72
    65
 73
     2
 40
     12.6061
 49
     6.30306
 49
    -6.30306
  0
LTYPE
  2
LTYPE_5
 70
    64
  3
-- . -- . -- . --
 72
    65
 73
     4
 40
     12.6061
 49
     6.30306
 49
    -3.15153
 49
           0
 49
    -3.15153
  0
LTYPE
  2
LTYPE_6
 70
    64
  3
---- . ---- . ----
 72
    65
 73
     4
 40
     18.9092
 49
     12.6061
 49
    -3.15153
 49
           0
 49
    -3.15153
  0
LTYPE
  2
LTYPE_7
 70
    64
  3
--- . --- . --- . ---
 72
    65
 73
     4
 40
     18.9092
 49
      9.4546
 49
    -3.15153
 49
     3.15153
 49
    -3.15153
  0
ENDTAB
  0
TABLE
  2
LAYER
 70
    13
  0
LAYER
  2
0
 70
     0
 62
     7
  6
CONTINUOUS
  0
LAYER
  2
Konstruktion
 70
     0
 62
     7
  6
CONTINUOUS
  0
LAYER
  2
Ebene_2
 70
     0
 62
     2
  6
CONTINUOUS
  0
LAYER
  2
LAYER_70
 70
     0
 62
     7
  6
CONTINUOUS
  0
LAYER
  2
LAYER_71
 70
     0
 62
     1
  6
CONTINUOUS
  0
LAYER
  2
LAYER_72
 70
     0
 62
     2
  6
CONTINUOUS
  0
LAYER
  2
LAYER_73
 70
     0
 62
     3
  6
CONTINUOUS
  0
LAYER
  2
LAYER_74
 70
     0
 62
     4
  6
CONTINUOUS
  0
LAYER
  2
LAYER_75
 70
     0
 62
     5
  6
CONTINUOUS
  0
LAYER
  2
LAYER_76
 70
     0
 62
     6
  6
CONTINUOUS
  0
LAYER
  2
LAYER_77
 70
     0
 62
    15
  6
CONTINUOUS
  0
LAYER
  2
LAYER_78
 70
     0
 62
    10
  6
CONTINUOUS
  0
LAYER
  2
LAYER_80
 70
     0
 62
     7
  6
CONTINUOUS
  0
ENDTAB
  0
TABLE
  2
STYLE
 70
     1
  0
STYLE
  2
STANDARD
 70
     0
 40
         0
 41
         1
 50
         0
 71
     0
 42
       0.2
  3
txt
  4

  0
ENDTAB
  0
TABLE
  2
VIEW
 70
     0
  0
ENDTAB
  0
ENDSEC
  0
SECTION
  2
BLOCKS
  0
ENDSEC
  0
SECTION
  2
ENTITIES
  0
ARC
  8
Ebene_2
 10
-178.578778
 20
68.59648986
 40
0.7360000001
 50
         0
 51
       180
  0
ARC
  8
Ebene_2
 10
-178.578778
 20
68.59648986
 40
0.7360000001
 50
       180
 51
         0
  0
ARC
  8
Ebene_2
 10
-178.578778
 20
68.59648986
 40
      1.26
 50
         0
 51
       180
  0
ARC
  8
Ebene_2
 10
-178.578778
 20
68.59648986
 40
      1.26
 50
       180
 51
         0
  0
ARC
  8
Ebene_2
 10
-147.794778
 20
-51.59951014
 40
     0.736
 50
         0
 51
       180
  0
ARC
  8
Ebene_2
 10
-147.794778
 20
-51.59951014
 40
     0.736
 50
       180
 51
         0
  0
ARC
  8
Ebene_2
 10
-147.794778
 20
-51.59951014
 40
      1.26
 50
         0
 51
       180
  0
ARC
  8
Ebene_2
 10
-147.794778
 20
-51.59951014
 40
      1.26
 50
       180
 51
         0
  0
LINE
  8
Ebene_2
 10
-16.36477804
 20
96.07048986
 11
-15.07474404
 21
106.4320439
  0
ARC
  8
LAYER_70
 10
309.8430351
 20
-224.7552107
 40
177.0147888
 50
156.9001534
 51
173.4469877
  0
LINE
  8
LAYER_70
 10
147.0208411
 20
-155.3061747
 11
163.7798195
 21
-114.9601929
  0
ARC
  8
LAYER_70
 10
615.4083597
 20
-302.5583767
 40
489.0413244
 50
148.7886594
 51
157.4429009
  0
ARC
  8
Ebene_2
 10
117.4769258
 20
-15.83336048
 40
24.10444554
 50
226.5925367
 51
273.1446498
  0
ARC
  8
Ebene_2
 10
113.8160414
 20
-19.70362723
 40
18.77705975
 50
192.4863953
 51
226.5925367
  0
ARC
  8
Ebene_2
 10
113.8160414
 20
-19.70362723
 40
15.77705975
 50
193.2461234
 51
226.5925367
  0
ARC
  8
Ebene_2
 10
117.4769258
 20
-15.83336048
 40
21.10444554
 50
226.5925367
 51
273.1446498
  0
LINE
  8
Ebene_2
 10
123.2614497
 20
160.9507137
 11
110.9648832
 21
160.9507137
  0
LINE
  8
Ebene_2
 10
97.96488321
 20
123.2960136
 11
110.9648832
 21
123.2960136
  0
LINE
  8
Ebene_2
 10
97.96488321
 20
10.95115188
 11
97.96488321
 21
123.2960136
  0
LINE
  8
Ebene_2
 10
110.9648832
 20
155.9544857
 11
110.9648832
 21
123.2960136
  0
LINE
  8
Ebene_2
 10
129.8285102
 20
155.9544857
 11
110.9648832
 21
155.9544857
  0
LINE
  8
Ebene_2
 10
129.8285102
 20
155.9544857
 11
129.8285102
 21
81.1036045
  0
LINE
  8
LAYER_71
 10
-102.172778
 20
183.5184899
 11
-86.35277804
 21
186.8124899
  0
LINE
  8
LAYER_71
 10
-86.35277804
 20
186.8124899
 11
-80.91677804
 21
160.7024899
  0
ARC
  8
LAYER_71
 10
-64.66859332
 20
164.0852984
 40
16.59659304
 50
191.7607525
 51
269.2991188
  0
ARC
  8
LAYER_71
 10
-63.80789837
 20
234.4420596
 40
86.95861859
 50
269.2991188
 51
287.3521818
  0
ARC
  8
LAYER_71
 10
-48.23910279
 20
184.6162848
 40
34.75713175
 50
287.3521818
 51
316.4294018
  0
ARC
  8
LAYER_71
 10
-4.747520617
 20
143.2423473
 40
25.27053211
 50
67.4837667
 51
136.4294018
  0
ARC
  8
LAYER_71
 10
42.64676563
 20
257.5706467
 40
98.49205682
 50
247.4837667
 51
271.8404287
  0
ARC
  8
LAYER_71
 10
53.49550772
 20
-80.0535937
 40
239.3064377
 50
82.98165583
 51
91.84042869
  0
LINE
  8
LAYER_71
 10
82.73567139
 20
157.4597406
 11
92.96154959
 21
156.2008372
  0
LINE
  8
LAYER_71
 10
92.96154959
 20
156.2008372
 11
129.8285102
 21
155.9544857
  0
ARC
  8
LAYER_71
 10
152.2944564
 20
12.93145994
 40
45.64975439
 50
356.4771548
 51
27.63637029
  0
ARC
  8
LAYER_71
 10
-63.82561445
 20
26.23642655
 40
262.1789838
 50
334.486594
 51
356.4771548
  0
ARC
  8
LAYER_71
 10
480.1637218
 20
-233.4981595
 40
340.6364611
 50
154.4700895
 51
161.046695
  0
LINE
  8
LAYER_71
 10
157.9953456
 20
-122.8602997
 11
153.1689361
 21
-135.0887189
  0
LINE
  8
LAYER_71
 10
153.1689361
 20
-135.0887189
 11
145.205349
 21
-155.2656391
  0
ARC
  8
LAYER_71
 10
305.7452446
 20
-218.6287993
 40
172.5918541
 50
158.4614484
 51
167.6469971
  0
LINE
  8
LAYER_71
 10
137.149222
 20
-181.7055101
 11
134.2639913
 21
-194.8798081
  0
LINE
  8
LAYER_71
 10
129.8285102
 20
76.45448986
 11
129.8285102
 21
155.9544857
  0
LINE
  8
LAYER_71
 10
187.2872191
 20
76.45448986
 11
129.8285102
 21
76.45448986
  0
LINE
  8
LAYER_71
 10
187.2872191
 20
76.45448986
 11
187.2872191
 21
54.01225092
  0
ARC
  8
LAYER_71
 10
235.5532514
 20
56.52542412
 40
48.33141741
 50
182.9806531
 51
207.6363703
  0
LINE
  8
LAYER_72
 10
-170.904778
 20
185.8484899
 11
-173.1897353
 21
196.6085535
  0
LINE
  8
LAYER_72
 10
-170.904778
 20
185.8484899
 11
-159.232778
 21
188.5084899
  0
LINE
  8
LAYER_72
 10
-173.1897353
 20
196.6085535
 11
-187.6407997
 21
193.3152164
  0
LINE
  8
LAYER_72
 10
-159.232778
 20
188.5084899
 11
-155.728778
 21
182.9024899
  0
LINE
  8
LAYER_72
 10
-155.728778
 20
182.9024899
 11
-148.252778
 21
144.6464899
  0
LINE
  8
LAYER_71
 10
-143.106944
 20
120.5286119
 11
-148.5482474
 21
141.7627288
  0
LINE
  8
LAYER_71
 10
-148.5482474
 20
141.7627288
 11
-132.722452
 21
145.9110899
  0
LINE
  8
LAYER_71
 10
-132.722452
 20
145.9110899
 11
-127.257632
 21
124.5852019
  0
LINE
  8
LAYER_71
 10
-127.257632
 20
124.5852019
 11
-143.106944
 21
120.5286119
  0
LINE
  8
LAYER_72
 10
-157.640214
 20
116.8159259
 11
-127.257632
 21
124.5852019
  0
LINE
  8
LAYER_72
 10
-148.252778
 20
144.6464899
 11
-163.0425195
 21
137.9675308
  0
LINE
  8
LAYER_72
 10
-157.640214
 20
116.8159259
 11
-163.0425195
 21
137.9675308
  0
LINE
  8
LAYER_72
 10
178.3513783
 20
47.38237445
 11
142.2649038
 21
47.38237445
  0
ARC
  8
LAYER_72
 10
142.2649038
 20
80.3014253
 40
32.91905085
 50
214.1604671
 51
       270
  0
ARC
  8
LAYER_72
 10
162.7836342
 20
94.22525363
 40
57.71605259
 50
188.6500589
 51
214.1604671
  0
ARC
  8
LAYER_72
 10
82.57024097
 20
82.02242425
 40
23.4202371
 50
8.650058857
 51
47.20789856
  0
LINE
  8
LAYER_72
 10
98.48054833
 20
99.20874514
 11
92.55402143
 21
99.20874514
  0
ARC
  8
LAYER_72
 10
92.55402143
 20
322.9828543
 40
223.7741092
 50
257.1557523
 51
       270
  0
ARC
  8
LAYER_72
 10
-44.75388219
 20
-279.2271007
 40
393.8910835
 50
77.15575233
 51
85.35192315
  0
ARC
  8
LAYER_72
 10
-3.648998414
 20
226.3513715
 40
113.355605
 50
236.7035311
 51
265.3519231
  0
ARC
  8
LAYER_72
 10
203.439766
 20
541.6562305
 40
490.586185
 50
234.7443478
 51
236.7035311
  0
ARC
  8
LAYER_72
 10
-107.8322434
 20
101.3086969
 40
48.6690553
 50
54.74434784
 51
103.9539034
  0
LINE
  8
LAYER_72
 10
-132.722452
 20
145.9110899
 11
-127.257632
 21
124.5852019
  0
LINE
  8
LAYER_72
 10
-127.257632
 20
124.5852019
 11
-132.722452
 21
145.9110899
  0
LINE
  8
LAYER_72
 10
-132.722452
 20
145.9110899
 11
-119.5683567
 21
148.5415307
  0
ARC
  8
LAYER_72
 10
175.5165974
 20
35.20838756
 40
12.49967756
 50
23.06170996
 51
76.89194006
  0
ARC
  8
LAYER_72
 10
136.3389024
 20
18.52862099
 40
55.08026475
 50
5.84314654
 51
23.06170996
  0
ARC
  8
LAYER_72
 10
0.2973441548
 20
4.606512493
 40
191.8323421
 50
339.5049551
 51
5.84314654
  0
LINE
  8
LAYER_72
 10
153.5931488
 20
-108.0297416
 11
158.295222
 21
-96.60951014
  0
ARC
  8
LAYER_72
 10
425.0405769
 20
-243.9062369
 40
302.6402231
 50
158.3438822
 51
169.8489873
  0
LINE
  8
LAYER_72
 10
143.7620675
 20
-132.221391
 11
153.5931488
 21
-108.0297416
  0
ARC
  8
LAYER_72
 10
-386.756097
 20
149.2817129
 40
605.0408609
 50
335.7386446
 51
339.5049551
  0
LINE
  8
LAYER_72
 10
158.295222
 20
-96.60951014
 11
164.8479336
 21
-99.32930199
  0
LINE
  8
LAYER_73
 10
114.501222
 20
-118.8895101
 11
112.471222
 21
-119.0215101
  0
LINE
  8
LAYER_73
 10
113.9564647
 20
-110.4549751
 11
114.501222
 21
-118.8895101
  0
LINE
  8
LAYER_73
 10
113.9564647
 20
-110.4549751
 11
153.5931488
 21
-108.0297416
  0
LINE
  8
LAYER_73
 10
-127.8785325
 20
127.0143051
 11
-92.51965907
 21
136.0523484
  0
LINE
  8
LAYER_73
 10
-92.51965907
 20
136.0523484
 11
-87.2036044
 21
137.4111794
  0
ARC
  8
LAYER_73
 10
-85.38827573
 20
130.3092023
 40
7.330313582
 50
24.74711496
 51
104.3383053
  0
LINE
  8
LAYER_73
 10
-127.2568601
 20
124.582182
 11
-127.8785325
 21
127.0143051
  0
LINE
  8
LAYER_73
 10
-78.73114697
 20
133.3777742
 11
-73.23680265
 21
111.0205882
  0
ARC
  8
LAYER_73
 10
-782.3003238
 20
-63.23386065
 40
730.1614137
 50
8.810584661
 51
13.80699131
  0
ARC
  8
LAYER_73
 10
-17.2274733
 20
55.35040302
 40
44.04701706
 50
188.8105847
 51
260.835272
  0
LINE
  8
LAYER_73
 10
61.27122196
 20
-20.61751014
 11
91.87722196
 21
-18.28951014
  0
LINE
  8
LAYER_73
 10
91.87722196
 20
-18.28951014
 11
90.33522196
 21
4.826489864
  0
LINE
  8
LAYER_73
 10
90.33522196
 20
4.826489864
 11
159.391536
 21
7.979285864
  0
ARC
  8
LAYER_73
 10
160.2963219
 20
-11.83842042
 40
19.83834974
 50
30.99341187
 51
92.61404844
  0
ARC
  8
LAYER_73
 10
133.8337112
 20
-27.73462005
 40
50.70838262
 50
348.6940349
 51
30.99341187
  0
LINE
  8
LAYER_73
 10
158.295222
 20
-96.60951014
 11
153.5931488
 21
-108.0297416
  0
LINE
  8
LAYER_73
 10
116.169222
 20
-175.3015101
 11
114.703222
 21
-152.3935101
  0
LINE
  8
LAYER_73
 10
114.703222
 20
-152.3935101
 11
123.489222
 21
-151.8715101
  0
LINE
  8
LAYER_73
 10
123.489222
 20
-151.8715101
 11
123.2057123
 21
-150.3307705
  0
ARC
  8
LAYER_73
 10
114.4070338
 20
-148.9546894
 40
16.75686344
 50
46.2322894
 51
65.52542813
  0
ARC
  8
LAYER_73
 10
118.6794747
 20
-144.4944002
 40
10.58046229
 50
36.36970574
 51
46.2322894
  0
ARC
  8
LAYER_73
 10
111.1074498
 20
-150.0708011
 40
19.98428114
 50
23.68112222
 51
36.36970574
  0
ARC
  8
LAYER_73
 10
101.547051
 20
-155.3791906
 40
30.88863539
 50
12.36594936
 51
25.57626279
  0
LINE
  8
LAYER_73
 10
123.2057123
 20
-150.3307705
 11
131.7190615
 21
-148.7642393
  0
ARC
  8
LAYER_73
 10
111.425799
 20
-155.5041131
 40
23.95288402
 50
65.52542813
 51
85.54699931
  0
LINE
  8
LAYER_73
 10
112.471222
 20
-119.0215101
 11
113.2855322
 21
-131.6235343
  0
LINE
  8
LAYER_73
 10
163.2955522
 20
-98.68496503
 11
158.295222
 21
-96.60951014
  0
ARC
  8
LAYER_73
 10
-72.64951069
 20
13.54715492
 40
261.2778625
 50
334.5609426
 51
348.6940349
  0
ARC
  8
LAYER_73
 10
-44.57445317
 20
-114.1560637
 40
127.6512636
 50
71.47251672
 51
80.83527202
  0
LINE
  8
LAYER_73
 10
-3.531542708
 20
0.6333941484
 11
-4.012050744
 21
6.879206357
  0
LINE
  8
LAYER_73
 10
33.45179377
 20
2.28546632
 11
-3.531542708
 21
0.6333941484
  0
LINE
  8
LAYER_73
 10
33.45179377
 20
2.28546632
 11
34.61522196
 21
-12.85151014
  0
LINE
  8
LAYER_74
 10
-191.394778
 20
67.49048986
 11
-186.152778
 21
69.88648986
  0
ARC
  8
LAYER_74
 10
-185.5045376
 20
60.23568165
 40
9.672554725
 50
15.11880026
 51
93.84275944
  0
LINE
  8
LAYER_74
 10
-167.328718
 20
114.3394579
 11
-84.54178004
 21
135.5472259
  0
LINE
  8
LAYER_74
 10
-84.54178004
 20
135.5472259
 11
-76.34995204
 21
103.5794699
  0
LINE
  8
LAYER_74
 10
-76.34995204
 20
103.5794699
 11
-83.42100678
 21
101.7674921
  0
ARC
  8
LAYER_74
 10
-82.16296892
 20
96.85813031
 40
5.067986983
 50
104.3729309
 51
190.2173866
  0
LINE
  8
LAYER_74
 10
-87.15058689
 20
95.9591536
 11
-75.53272213
 21
22.81404227
  0
LINE
  8
LAYER_74
 10
-44.30174872
 20
3.587720748
 11
-55.47701895
 21
3.836874568
  0
ARC
  8
LAYER_74
 10
-55.01838803
 20
24.40779931
 40
20.57603672
 50
195.7639257
 51
268.7227962
  0
ARC
  8
LAYER_74
 10
-55.01276442
 20
24.40938681
 40
20.5818801
 50
184.4455748
 51
195.7639257
  0
LINE
  8
LAYER_74
 10
-44.00676976
 20
-0.5228689383
 11
-43.86554466
 21
-2.339362413
  0
LINE
  8
LAYER_74
 10
-7.816778037
 20
0.4044898639
 11
-3.531542708
 21
0.6333941484
  0
LINE
  8
LAYER_74
 10
-125.490778
 20
-18.25351014
 11
-123.238778
 21
-47.43751014
  0
LINE
  8
LAYER_74
 10
117.141222
 20
-50.49151014
 11
138.403222
 21
-48.82751014
  0
LINE
  8
LAYER_74
 10
138.403222
 20
-48.82751014
 11
138.755222
 21
-52.44151014
  0
LINE
  8
LAYER_74
 10
117.141222
 20
-50.49151014
 11
118.861222
 21
-71.69351014
  0
LINE
  8
LAYER_74
 10
118.861222
 20
-71.69351014
 11
117.209222
 21
-71.82751014
  0
LINE
  8
LAYER_74
 10
113.9564647
 20
-110.4549751
 11
153.5931488
 21
-108.0297416
  0
LINE
  8
LAYER_74
 10
153.5931488
 20
-108.0297416
 11
158.295222
 21
-96.60951014
  0
LINE
  8
LAYER_74
 10
127.421222
 20
-96.22751014
 11
147.869222
 21
-94.65151014
  0
LINE
  8
LAYER_74
 10
147.869222
 20
-94.65151014
 11
158.295222
 21
-96.60951014
  0
LINE
  8
LAYER_74
 10
127.421222
 20
-96.22751014
 11
127.239222
 21
-93.87351014
  0
LINE
  8
LAYER_74
 10
127.239222
 20
-93.87351014
 11
119.049222
 21
-94.50551014
  0
LINE
  8
LAYER_74
 10
119.049222
 20
-94.50551014
 11
117.209222
 21
-71.82751014
  0
LINE
  8
LAYER_74
 10
113.9564647
 20
-110.4549751
 11
114.501222
 21
-118.8895101
  0
LINE
  8
LAYER_74
 10
114.501222
 20
-118.8895101
 11
112.471222
 21
-119.0215101
  0
ARC
  8
LAYER_74
 10
116.5968002
 20
-146.3430298
 40
13.35607847
 50
29.88513758
 51
52.42557861
  0
ARC
  8
LAYER_74
 10
112.5732861
 20
-149.3483515
 40
18.35185123
 50
23.45362156
 51
31.76160208
  0
LINE
  8
LAYER_74
 10
123.489222
 20
-151.8715101
 11
114.703222
 21
-152.3935101
  0
LINE
  8
LAYER_74
 10
114.703222
 20
-152.3935101
 11
116.169222
 21
-175.3015101
  0
ARC
  8
LAYER_74
 10
109.7010427
 20
-153.514647
 40
13.88574034
 50
6.795886518
 51
31.67804615
  0
LINE
  8
LAYER_74
 10
121.5179798
 20
-146.2226114
 11
129.4089541
 21
-142.0441933
  0
ARC
  8
LAYER_74
 10
112.2604617
 20
-152.4035293
 40
20.80527165
 50
53.13837317
 51
87.17676351
  0
LINE
  8
LAYER_74
 10
112.471222
 20
-119.0215101
 11
113.285222
 21
-131.6235101
  0
LINE
  8
LAYER_74
 10
138.755222
 20
-52.44151014
 11
149.0650113
 21
-51.43734693
  0
LINE
  8
LAYER_74
 10
149.0650113
 20
-51.43734693
 11
149.685049
 21
-57.80330287
  0
LINE
  8
LAYER_74
 10
12.65715183
 20
-50.83033206
 11
93.63403315
 21
-44.62572762
  0
LINE
  8
LAYER_74
 10
12.34922196
 20
-46.81151014
 11
12.65715183
 21
-50.83033206
  0
LINE
  8
LAYER_74
 10
-13.77322573
 20
-48.82191263
 11
12.34922196
 21
-46.81151014
  0
LINE
  8
LAYER_74
 10
-13.77322573
 20
-48.82191263
 11
-14.51868209
 21
-39.03333655
  0
LINE
  8
LAYER_74
 10
-123.238778
 20
-47.43751014
 11
-14.51868209
 21
-39.03333655
  0
LINE
  8
LAYER_74
 10
-176.166778
 20
62.75848986
 11
-161.7361798
 21
66.65724433
  0
LINE
  8
LAYER_74
 10
-161.7361798
 20
66.65724433
 11
-169.3669625
 21
96.43252489
  0
LINE
  8
LAYER_74
 10
-167.328718
 20
114.3394579
 11
-169.3669625
 21
96.43252489
  0
LINE
  8
LAYER_74
 10
-43.87635778
 20
-2.340185453
 11
-44.30174872
 21
3.587720748
  0
LINE
  8
LAYER_74
 10
-43.87635778
 20
-2.340185453
 11
-7.816778037
 21
0.4044898639
  0
LINE
  8
LAYER_74
 10
-3.531542708
 20
0.6333941484
 11
-2.809640421
 21
-8.750145294
  0
LINE
  8
LAYER_74
 10
-2.809640421
 20
-8.750145294
 11
-125.490778
 21
-18.25351014
  0
LINE
  8
LAYER_74
 10
116.169222
 20
-175.3015101
 11
112.4172051
 21
-197.6308731
  0
LINE
  8
LAYER_73
 10
116.169222
 20
-175.3015101
 11
117.403222
 21
-175.2415101
  0
LINE
  8
LAYER_73
 10
117.403222
 20
-175.2415101
 11
114.842834
 21
-190.5679561
  0
LINE
  8
LAYER_75
 10
-125.490778
 20
-18.25351014
 11
-123.238778
 21
-47.43751014
  0
LINE
  8
LAYER_75
 10
-123.238778
 20
-47.43751014
 11
-14.51868209
 21
-39.03333655
  0
LINE
  8
LAYER_75
 10
-14.51868209
 20
-39.03333655
 11
-13.77322573
 21
-48.82191263
  0
LINE
  8
LAYER_75
 10
-13.77322573
 20
-48.82191263
 11
12.34922196
 21
-46.81151014
  0
LINE
  8
LAYER_75
 10
12.34922196
 20
-46.81151014
 11
12.65715183
 21
-50.83033206
  0
LINE
  8
LAYER_75
 10
67.84632884
 20
-48.33612296
 11
85.61034966
 21
-47.44580768
  0
LINE
  8
LAYER_75
 10
114.501222
 20
-118.8895101
 11
112.471222
 21
-119.0215101
  0
LINE
  8
LAYER_75
 10
112.471222
 20
-119.0215101
 11
113.285222
 21
-131.6235101
  0
LINE
  8
LAYER_75
 10
124.741222
 20
-135.7575101
 11
118.8777237
 21
-143.2670278
  0
ARC
  8
LAYER_75
 10
112.1458909
 20
-152.7210242
 40
21.12825537
 50
53.40628363
 51
86.90885305
  0
ARC
  8
LAYER_75
 10
111.2184435
 20
-152.766226
 40
12.20243176
 50
32.42906001
 51
51.12048726
  0
ARC
  8
LAYER_75
 10
109.1096232
 20
-153.721029
 40
14.49805436
 50
7.329202655
 51
31.14473002
  0
LINE
  8
LAYER_75
 10
111.983222
 20
-151.6235101
 11
92.55322196
 21
-152.9755101
  0
LINE
  8
LAYER_75
 10
92.55322196
 20
-152.9755101
 11
92.69122196
 21
-154.9715101
  0
LINE
  8
LAYER_75
 10
92.69122196
 20
-154.9715101
 11
86.48122196
 21
-155.4035101
  0
LINE
  8
LAYER_75
 10
86.48122196
 20
-155.4035101
 11
86.33922196
 21
-153.3675101
  0
LINE
  8
LAYER_75
 10
86.33922196
 20
-153.3675101
 11
63.05922196
 21
-154.9795101
  0
LINE
  8
LAYER_75
 10
63.05922196
 20
-154.9795101
 11
64.77522196
 21
-179.7975101
  0
LINE
  8
LAYER_75
 10
64.77522196
 20
-179.7975101
 11
73.30322196
 21
-179.1235101
  0
LINE
  8
LAYER_75
 10
73.30322196
 20
-179.1235101
 11
74.54072895
 21
-194.781462
  0
ARC
  8
LAYER_75
 10
76.88202398
 20
-185.0328632
 40
34.51393739
 50
347.9175853
 51
4.51890827
  0
LINE
  8
LAYER_75
 10
96.44372535
 20
-193.2648112
 11
74.54072895
 21
-194.781462
  0
LINE
  8
LAYER_75
 10
95.40322196
 20
-180.0995101
 11
96.44372535
 21
-193.2648112
  0
LINE
  8
LAYER_75
 10
95.40322196
 20
-180.0995101
 11
111.0161612
 21
-178.8655607
  0
LINE
  8
LAYER_75
 10
111.0161612
 20
-178.8655607
 11
111.2886709
 21
-182.3135762
  0
LINE
  8
LAYER_75
 10
111.983222
 20
-151.6235101
 11
112.0466308
 21
-152.5513454
  0
LINE
  8
LAYER_75
 10
123.489222
 20
-151.8715101
 11
112.0466308
 21
-152.5513454
  0
LINE
  8
LAYER_75
 10
-141.961294
 20
-10.49022414
 11
-72.93170775
 21
-4.754442272
  0
LINE
  8
LAYER_75
 10
-72.15355588
 20
-14.11942561
 11
-72.93170775
 21
-4.754442272
  0
LINE
  8
LAYER_75
 10
-72.15355588
 20
-14.11942561
 11
-125.490778
 21
-18.25351014
  0
LINE
  8
LAYER_75
 10
-176.944778
 20
-47.91951014
 11
-179.262778
 21
-37.83151014
  0
LINE
  8
LAYER_75
 10
 -152.3001
 20
-42.18656092
 11
-162.7271967
 21
-1.245531153
  0
LINE
  8
LAYER_75
 10
 -152.3001
 20
-42.18656092
 11
-176.944778
 21
-47.91951014
  0
LINE
  8
LAYER_76
 10
-123.238778
 20
-47.43751014
 11
-122.5619752
 21
-55.9388009
  0
LINE
  8
LAYER_76
 10
-122.5619752
 20
-55.9388009
 11
-122.1170703
 21
-61.52723252
  0
LINE
  8
LAYER_76
 10
-122.1170703
 20
-61.52723252
 11
-117.941588
 21
-61.19599614
  0
LINE
  8
LAYER_76
 10
-136.4763466
 20
-106.0955345
 11
-133.8602742
 21
-115.9782073
  0
ARC
  8
LAYER_76
 10
-143.9470204
 20
-118.6483005
 40
10.43416733
 50
291.7372128
 51
14.82686335
  0
ARC
  8
LAYER_76
 10
-170.3882987
 20
-52.32971315
 40
81.82951894
 50
273.2530649
 51
291.7372128
  0
ARC
  8
LAYER_76
 10
-158.0320805
 20
-269.7241676
 40
135.9158024
 50
93.25306487
 51
100.5044234
  0
LINE
  8
LAYER_76
 10
-182.8110854
 20
-136.0862005
 11
-185.904778
 21
-119.8095101
  0
LINE
  8
LAYER_76
 10
-123.238778
 20
-47.43751014
 11
-14.53019804
 21
-38.89800814
  0
LINE
  8
LAYER_76
 10
-14.53019804
 20
-38.89800814
 11
-13.77322573
 21
-48.82191263
  0
LINE
  8
LAYER_76
 10
-13.77322573
 20
-48.82191263
 11
12.34922196
 21
-46.81151014
  0
LINE
  8
LAYER_76
 10
12.34922196
 20
-46.81151014
 11
12.65715183
 21
-50.83033206
  0
ARC
  8
LAYER_76
 10
59.15441325
 20
-48.5507607
 40
3.128372375
 50
184.3815517
 51
250.5207205
  0
LINE
  8
Ebene_2
 10
93.63403315
 20
-44.62572762
 11
91.87722196
 21
-18.28951014
  0
LINE
  8
LAYER_74
 10
93.63403315
 20
-44.62572762
 11
102.0262503
 21
-44.06590764
  0
ARC
  8
LAYER_74
 10
116.9690171
 20
-268.0717423
 40
224.5036754
 50
88.40227923
 51
93.81637797
  0
ARC
  8
LAYER_74
 10
127.9263988
 20
124.7684833
 40
168.4893361
 50
268.4022792
 51
274.3126525
  0
ARC
  8
LAYER_74
 10
142.6217601
 20
-68.38924241
 40
25.22687623
 50
68.94088085
 51
94.6045005
  0
ARC
  8
LAYER_74
 10
147.554886
 20
-55.57753804
 40
11.49823829
 50
353.4042066
 51
68.94088085
  0
LINE
  8
LAYER_74
 10
149.685049
 20
-57.80330287
 11
158.9770198
 21
-56.89827418
  0
LINE
  8
LAYER_75
 10
85.61034966
 20
-47.44580768
 11
92.97735185
 21
-47.52812055
  0
ARC
  8
LAYER_75
 10
95.38402828
 20
167.8694198
 40
215.4109851
 50
269.3598503
 51
274.1917505
  0
ARC
  8
LAYER_75
 10
145.4545223
 20
-515.3076412
 40
469.5984682
 50
90.73391828
 51
94.19175055
  0
ARC
  8
LAYER_75
 10
138.7671097
 20
-57.87206808
 40
12.14299853
 50
31.99951206
 51
 86.825928
  0
LINE
  8
LAYER_75
 10
149.0650113
 20
-51.43734693
 11
138.755222
 21
-52.44151014
  0
LINE
  8
LAYER_75
 10
138.755222
 20
-52.44151014
 11
138.403222
 21
-48.82751014
  0
LINE
  8
LAYER_75
 10
138.403222
 20
-48.82751014
 11
117.141222
 21
-50.49151014
  0
LINE
  8
LAYER_75
 10
117.141222
 20
-50.49151014
 11
118.861222
 21
-71.69351014
  0
LINE
  8
LAYER_75
 10
118.861222
 20
-71.69351014
 11
117.209222
 21
-71.82751014
  0
LINE
  8
LAYER_75
 10
117.209222
 20
-71.82751014
 11
119.049222
 21
-94.50551014
  0
ARC
  8
LAYER_75
 10
105.8594368
 20
-95.57567526
 40
13.23312836
 50
326.2403563
 51
4.638583942
  0
ARC
  8
LAYER_75
 10
132.1679509
 20
-113.1608682
 40
18.41141184
 50
146.2403563
 51
171.5487269
  0
LINE
  8
LAYER_75
 10
114.501222
 20
-118.8895101
 11
113.9564647
 21
-110.4549751
  0
LINE
  8
LAYER_75
 10
12.65715183
 20
-50.83033206
 11
63.31678606
 21
-46.94869342
  0
LINE
  8
LAYER_75
 10
63.31678606
 20
-46.94869342
 11
63.42483918
 21
-48.62169157
  0
LINE
  8
LAYER_75
 10
67.84632884
 20
-48.33612296
 11
63.42483918
 21
-48.62169157
  0
LINE
  8
LAYER_76
 10
58.11120762
 20
-51.50007176
 11
65.81752271
 21
-51.00234772
  0
ARC
  8
LAYER_76
 10
83.97984977
 20
-332.211621
 40
281.7951836
 50
90.44149532
 51
93.69540209
  0
ARC
  8
LAYER_76
 10
 80.645334
 20
-73.55139236
 40
 23.155821
 50
62.33761136
 51
87.12073637
  0
ARC
  8
LAYER_76
 10
84.17630539
 20
-66.81514246
 40
15.55024268
 50
38.86106731
 51
62.33761136
  0
LINE
  8
LAYER_76
 10
96.28480776
 20
-57.05839004
 11
99.38322196
 21
-99.60551014
  0
ARC
  8
LAYER_76
 10
107.2861955
 20
-99.02999091
 40
7.923901419
 50
184.1651052
 51
248.6041244
  0
ARC
  8
LAYER_76
 10
112.5835355
 20
-85.50990783
 40
22.4447298
 50
248.6041244
 51
263.8937786
  0
ARC
  8
LAYER_76
 10
109.6901956
 20
-112.5557767
 40
4.755462115
 50
26.21661541
 51
83.89377862
  0
LINE
  8
LAYER_76
 10
113.9564647
 20
-110.4549751
 11
114.501222
 21
-118.8895101
  0
LINE
  8
LAYER_76
 10
114.501222
 20
-118.8895101
 11
112.471222
 21
-119.0215101
  0
LINE
  8
LAYER_76
 10
112.471222
 20
-119.0215101
 11
113.285222
 21
-131.6235101
  0
LINE
  8
LAYER_76
 10
114.5867998
 20
-140.8515274
 11
114.5910415
 21
-142.9524769
  0
ARC
  8
LAYER_76
 10
98.97630556
 20
-142.9840022
 40
15.61476773
 50
326.4069276
 51
0.1156768399
  0
LINE
  8
LAYER_76
 10
111.983222
 20
-151.6235101
 11
92.55322196
 21
-152.9755101
  0
LINE
  8
LAYER_76
 10
92.55322196
 20
-152.9755101
 11
92.69122196
 21
-154.9715101
  0
LINE
  8
LAYER_76
 10
92.69122196
 20
-154.9715101
 11
86.48122196
 21
-155.4035101
  0
LINE
  8
LAYER_76
 10
86.48122196
 20
-155.4035101
 11
86.33922196
 21
-153.3675101
  0
LINE
  8
LAYER_76
 10
86.33922196
 20
-153.3675101
 11
63.05922196
 21
-154.9795101
  0
LINE
  8
LAYER_76
 10
63.05922196
 20
-154.9795101
 11
64.77522196
 21
-179.7975101
  0
LINE
  8
LAYER_76
 10
64.77522196
 20
-179.7975101
 11
73.30322196
 21
-179.1235101
  0
LINE
  8
LAYER_76
 10
73.30322196
 20
-179.1235101
 11
74.54072895
 21
-194.781462
  0
LINE
  8
LAYER_76
 10
74.54072895
 20
-194.781462
 11
96.44372535
 21
-193.2648112
  0
LINE
  8
LAYER_76
 10
96.44372535
 20
-193.2648112
 11
95.40322196
 21
-180.0995101
  0
LINE
  8
LAYER_76
 10
95.40322196
 20
-180.0995101
 11
103.4454008
 21
-179.4639064
  0
LINE
  8
LAYER_76
 10
103.4454008
 20
-179.4639064
 11
104.0560606
 21
-187.1904744
  0
LINE
  8
LAYER_76
 10
12.65715183
 20
-50.83033206
 11
55.93744117
 21
-47.51411303
  0
LINE
  8
LAYER_76
 10
55.93744117
 20
-47.51411303
 11
56.03518385
 21
-48.78976206
  0
ARC
  8
LAYER_76
 10
112.6293999
 20
-149.4968556
 40
17.88537335
 50
75.83463687
 51
87.89860332
  0
LINE
  8
LAYER_76
 10
117.0063314
 20
-132.1553144
 11
114.5867998
 21
-140.8515274
  0
LINE
  8
LAYER_77
 10
49.17736545
 20
-60.96265204
 11
54.15095156
 21
-60.70202744
  0
ARC
  8
LAYER_77
 10
54.54205356
 20
-68.16555745
 40
 7.4737702
 50
44.34473137
 51
92.99965531
  0
ARC
  8
LAYER_77
 10
51.30832062
 20
-67.24097908
 40
9.595665011
 50
2.909836691
 51
26.61900089
  0
ARC
  8
LAYER_77
 10
-1349.959949
 20
-138.4673603
 40
1412.672984
 50
2.324990036
 51
2.909836691
  0
ARC
  8
LAYER_77
 10
 52.554188
 20
-81.52385763
 40
9.003340088
 50
294.4600055
 51
2.324990036
  0
ARC
  8
LAYER_77
 10
51.1068934
 20
-78.34217582
 40
12.49873146
 50
259.3248408
 51
294.4600055
  0
ARC
  8
LAYER_77
 10
32.8251466
 20
-175.326044
 40
86.19317778
 50
79.32484077
 51
90.87697432
  0
ARC
  8
LAYER_77
 10
31.39751004
 20
-82.06087086
 40
7.082921322
 50
 193.46645
 51
270.8769743
  0
ARC
  8
LAYER_77
 10
100.1222945
 20
-65.60406573
 40
77.75061146
 50
183.7007929
 51
 193.46645
  0
ARC
  8
LAYER_77
 10
31.10370257
 20
-70.06825704
 40
8.587796087
 50
111.4296161
 51
183.7007929
  0
LINE
  8
LAYER_77
 10
27.9660826
 20
-62.07416031
 11
49.17736545
 21
-60.96265204
  0
ARC
  8
LAYER_78
 10
49.99573458
 20
-75.09316462
 40
8.613894933
 50
51.86534035
 51
94.59221201
  0
ARC
  8
LAYER_78
 10
53.18593127
 20
-71.02962077
 40
3.447683213
 50
355.8342859
 51
51.86534035
  0
LINE
  8
LAYER_78
 10
56.62450613
 20
-71.28006527
 11
56.62450613
 21
-78.38095219
  0
ARC
  8
LAYER_78
 10
50.09824097
 20
-78.38095219
 40
6.526265162
 50
303.0356285
 51
         0
  0
ARC
  8
LAYER_78
 10
49.06666382
 20
-76.79462313
 40
8.418510201
 50
259.5842364
 51
303.0356285
  0
ARC
  8
LAYER_78
 10
57.96043293
 20
-28.41126188
 40
57.61250145
 50
249.7282315
 51
259.5842364
  0
ARC
  8
LAYER_78
 10
41.68210962
 20
-72.48401488
 40
10.62961768
 50
214.0724249
 51
249.7282315
  0
ARC
  8
LAYER_78
 10
39.77535021
 20
-73.77365015
 40
8.327685763
 50
165.4923892
 51
214.0724249
  0
ARC
  8
LAYER_78
 10
38.17706767
 20
-73.36007967
 40
6.676762502
 50
121.569142
 51
165.4923892
  0
ARC
  8
LAYER_78
 10
37.7997567
 20
-72.74602866
 40
5.956052986
 50
86.95988256
 51
121.569142
  0
LINE
  8
LAYER_78
 10
49.30607656
 20
-66.50692227
 11
38.11563695
 21
-66.79835795
  0
LINE
  8
LAYER_77
 10
-117.358778
 20
-178.4735101
 11
-115.286778
 21
-186.4415101
  0
LINE
  8
LAYER_77
 10
-115.286778
 20
-186.4415101
 11
-97.60072237
 21
-181.8424254
  0
LINE
  8
LAYER_77
 10
-97.60072237
 20
-181.8424254
 11
-114.000778
 21
-116.1135101
  0
LINE
  8
LAYER_77
 10
-114.000778
 20
-116.1135101
 11
-85.47077804
 21
-112.9015101
  0
LINE
  8
LAYER_77
 10
-85.47077804
 20
-112.9015101
 11
-81.34677804
 21
-128.9155101
  0
ARC
  8
LAYER_77
 10
42.50824312
 20
-148.5309651
 40
30.9875499
 50
96.46583033
 51
150.7291812
  0
LINE
  8
LAYER_77
 10
39.01871486
 20
-117.7405211
 11
101.2737793
 21
-112.5868978
  0
ARC
  8
LAYER_77
 10
-390.1096734
 20
5823.258029
 40
5956.149149
 50
274.7322915
 51
274.8553859
  0
LINE
  8
LAYER_77
 10
114.025222
 20
-111.5175101
 11
114.501222
 21
-118.8895101
  0
LINE
  8
LAYER_77
 10
114.501222
 20
-118.8895101
 11
112.471222
 21
-119.0215101
  0
LINE
  8
LAYER_77
 10
112.471222
 20
-119.0215101
 11
113.285222
 21
-131.6235101
  0
LINE
  8
LAYER_77
 10
113.285222
 20
-131.6235101
 11
110.125222
 21
-131.8275101
  0
LINE
  8
LAYER_77
 10
110.125222
 20
-131.8275101
 11
108.979222
 21
-142.1595101
  0
LINE
  8
LAYER_77
 10
108.979222
 20
-142.1595101
 11
108.889222
 21
-146.0455101
  0
LINE
  8
LAYER_77
 10
108.889222
 20
-146.0455101
 11
109.2796008
 21
-151.82094
  0
LINE
  8
LAYER_77
 10
109.2796008
 20
-151.82094
 11
92.55322196
 21
-152.9755101
  0
LINE
  8
LAYER_77
 10
92.55322196
 20
-152.9755101
 11
92.69122196
 21
-154.9715101
  0
LINE
  8
LAYER_77
 10
92.69122196
 20
-154.9715101
 11
86.48122196
 21
-155.4035101
  0
LINE
  8
LAYER_77
 10
86.48122196
 20
-155.4035101
 11
86.33922196
 21
-153.3675101
  0
LINE
  8
LAYER_77
 10
86.33922196
 20
-153.3675101
 11
63.05922196
 21
-154.9795101
  0
LINE
  8
LAYER_77
 10
63.05922196
 20
-154.9795101
 11
64.77522196
 21
-179.7975101
  0
LINE
  8
LAYER_77
 10
64.77522196
 20
-179.7975101
 11
73.30322196
 21
-179.1235101
  0
LINE
  8
LAYER_77
 10
73.30322196
 20
-179.1235101
 11
74.54072895
 21
-194.781462
  0
LINE
  8
LAYER_77
 10
74.54072895
 20
-194.781462
 11
96.44372535
 21
-193.2648112
  0
LINE
  8
LAYER_77
 10
96.44372535
 20
-193.2648112
 11
96.80211401
 21
-198.4405481
  0
LINE
  8
LAYER_77
 10
-81.34677804
 20
-128.9155101
 11
-70.91077804
 21
-169.4315101
  0
LINE
  8
LAYER_77
 10
-70.91077804
 20
-169.4315101
 11
-75.10077804
 21
-170.4935101
  0
LINE
  8
LAYER_77
 10
-75.10077804
 20
-170.4935101
 11
-70.15077804
 21
-189.8995101
  0
LINE
  8
LAYER_77
 10
-70.15077804
 20
-189.8995101
 11
-34.97077804
 21
-180.9355101
  0
LINE
  8
LAYER_77
 10
-18.11540356
 20
-199.0592185
 11
-10.46044789
 21
-196.913755
  0
ARC
  8
LAYER_77
 10
-19.20483283
 20
-165.714026
 40
32.40196533
 50
285.6566535
 51
353.9118954
  0
ARC
  8
LAYER_77
 10
-150.4632423
 20
-151.7141104
 40
164.4048733
 50
353.9118954
 51
2.118698361
  0
ARC
  8
LAYER_77
 10
50.21635325
 20
-144.2899435
 40
36.41200436
 50
 162.56487
 51
182.1186984
  0
LINE
  8
LAYER_77
 10
-34.97077804
 20
-180.9355101
 11
-29.60671366
 21
-201.9872488
  0
LINE
  8
LAYER_77
 10
-18.11540356
 20
-199.0592185
 11
-29.60671366
 21
-201.9872488
  0
LINE
  8
LAYER_77
 10
-171.2232794
 20
-193.961354
 11
-117.358778
 21
-178.4735101
  0
LINE
  8
LAYER_77
 10
-171.2232794
 20
-193.961354
 11
-182.8110854
 21
-136.0862005
  0
LINE
  8
LAYER_78
 10
-83.61174004
 20
-52.39676014
 11
-87.86716404
 21
-52.72414214
  0
LINE
  8
LAYER_78
 10
-87.86716404
 20
-52.72414214
 11
-87.35476804
 21
-59.38446014
  0
LINE
  8
LAYER_78
 10
-87.35476804
 20
-59.38446014
 11
-83.09934204
 21
-59.05707814
  0
LINE
  8
LAYER_78
 10
-83.09934204
 20
-59.05707814
 11
-82.46245204
 21
-67.33558614
  0
LINE
  8
LAYER_78
 10
-122.5849123
 20
-55.93667477
 11
-123.238778
 21
-47.43751014
  0
LINE
  8
LAYER_78
 10
-97.43734283
 20
-54.0019982
 11
-122.5849123
 21
-55.93667477
  0
LINE
  8
LAYER_78
 10
-96.32947619
 20
-68.40241714
 11
-82.46245204
 21
-67.33558614
  0
LINE
  8
LAYER_78
 10
-96.32947619
 20
-68.40241714
 11
-97.43734283
 21
-54.0019982
  0
LINE
  8
LAYER_78
 10
-84.22418184
 20
-44.43600236
 11
-83.61174004
 21
-52.39676014
  0
LINE
  8
LAYER_78
 10
-84.22418184
 20
-44.43600236
 11
-123.238778
 21
-47.43751014
  0
LINE
  8
LAYER_76
 10
-110.4053387
 20
-90.52432819
 11
-120.5676125
 21
-91.30614143
  0
LINE
  8
LAYER_76
 10
-117.950807
 20
-101.1915825
 11
-120.5676125
 21
-91.30614143
  0
LINE
  8
LAYER_76
 10
-117.950807
 20
-101.1915825
 11
-136.4763466
 21
-106.0955345
  0
LINE
  8
LAYER_76
 10
-117.941588
 20
-61.19599614
 11
-108.981846
 21
-60.50669814
  0
LINE
  8
LAYER_76
 10
-108.981846
 20
-60.50669814
 11
-108.305298
 21
-69.30071214
  0
LINE
  8
LAYER_76
 10
-115.7125567
 20
-69.8705726
 11
-110.4053387
 21
-90.52432819
  0
LINE
  8
LAYER_76
 10
-108.305298
 20
-69.30071214
 11
-115.7125567
 21
-69.8705726
  0
LINE
  8
Ebene_2
 10
-191.562778
 20
-48.23151014
 11
-189.646778
 21
-56.98751014
  0
LINE
  8
Ebene_2
 10
-189.646778
 20
-56.98751014
 11
-150.338778
 21
-49.88751014
  0
LINE
  8
Ebene_2
 10
-161.016778
 20
-119.0015101
 11
-161.4809849
 21
-117.0561279
  0
LINE
  8
Ebene_2
 10
-155.836778
 20
-110.4755101
 11
-157.782213
 21
-110.9394961
  0
LINE
  8
Ebene_2
 10
-180.544778
 20
-114.6575101
 11
-178.5640573
 21
-114.3804807
  0
LINE
  8
Ebene_2
 10
-176.760778
 20
-105.5435101
 11
-176.4836669
 21
-107.5242195
  0
LINE
  8
Ebene_2
 10
-150.338778
 20
-49.88751014
 11
-117.358778
 21
-178.4735101
  0
LINE
  8
Ebene_2
 10
-115.286778
 20
-186.4415101
 11
-114.252764
 21
-190.5679561
  0
LINE
  8
Ebene_2
 10
-191.394778
 20
67.49048986
 11
-185.978778
 21
66.78648986
  0
ARC
  8
Ebene_2
 10
-185.6042956
 20
59.90016195
 40
6.896502678
 50
15.99476384
 51
93.11271127
  0
LINE
  8
Ebene_2
 10
-178.974778
 20
61.80048986
 11
-156.508778
 21
-25.83551014
  0
LINE
  8
Ebene_2
 10
-156.508778
 20
-25.83551014
 11
-163.118778
 21
-27.37751014
  0
LINE
  8
Ebene_2
 10
-150.338778
 20
-49.88751014
 11
-152.312778
 21
-42.18951014
  0
LINE
  8
Ebene_2
 10
-196.654778
 20
75.02448986
 11
-193.068778
 21
77.49048986
  0
LINE
  8
Ebene_2
 10
-193.068778
 20
77.49048986
 11
-190.970778
 21
80.24848986
  0
LINE
  8
Ebene_2
 10
-190.970778
 20
80.24848986
 11
-188.088778
 21
84.03448986
  0
LINE
  8
Ebene_2
 10
-188.088778
 20
84.03448986
 11
-187.069814
 21
90.53555586
  0
LINE
  8
Ebene_2
 10
-187.069814
 20
90.53555586
 11
-187.004778
 21
90.95048986
  0
LINE
  8
Ebene_2
 10
-190.970778
 20
80.24848986
 11
-188.254778
 21
77.75048986
  0
ARC
  8
Ebene_2
 10
-203.0611805
 20
89.9641889
 40
19.19385312
 50
320.4810138
 51
15.03605271
  0
LINE
  8
Ebene_2
 10
-193.488778
 20
182.7104899
 11
-189.070778
 21
162.0224899
  0
LINE
  8
Ebene_2
 10
-189.070778
 20
162.0224899
 11
-181.95574
 21
133.3100659
  0
LINE
  8
Ebene_2
 10
-120.722778
 20
-187.7535101
 11
-120.02773
 21
-190.5679561
  0
LINE
  8
Ebene_2
 10
-120.722778
 20
-187.7535101
 11
-131.884572
 21
-190.5679561
  0
LINE
  8
Ebene_2
 10
-114.000778
 20
-116.1135101
 11
-116.664666
 21
-106.0502001
  0
LINE
  8
Ebene_2
 10
-116.664666
 20
-106.0502001
 11
-81.20635004
 21
-103.3222921
  0
LINE
  8
Ebene_2
 10
-81.20635004
 20
-103.3222921
 11
-81.28356082
 21
-102.318679
  0
LINE
  8
Ebene_2
 10
-83.59927804
 20
-103.5063861
 11
-86.34536004
 21
-67.81186214
  0
LINE
  8
Ebene_2
 10
-85.90046404
 20
-73.59477414
 11
-95.87100204
 21
-74.36183614
  0
LINE
  8
Ebene_2
 10
-95.48747004
 20
-79.34710414
 11
-85.51693204
 21
-78.58004214
  0
LINE
  8
Ebene_2
 10
-85.13340204
 20
-83.56531214
 11
-95.10394004
 21
-84.33237214
  0
LINE
  8
Ebene_2
 10
-94.72040804
 20
-89.31764214
 11
-84.74987204
 21
-88.55058014
  0
LINE
  8
Ebene_2
 10
-84.36634004
 20
-93.53584814
 11
-94.33687804
 21
-94.30291014
  0
ARC
  8
LAYER_77
 10
-8.428235429
 20
-51.02480484
 40
5.160267083
 50
184.3992626
 51
276.1504735
  0
LINE
  8
LAYER_77
 10
-7.875364563
 20
-56.15536916
 11
47.1557237
 21
-52.16014812
  0
ARC
  8
LAYER_77
 10
46.96491321
 20
-49.53188083
 40
2.635184552
 50
274.1523511
 51
9.071335883
  0
LINE
  8
LAYER_77
 10
12.65715183
 20
-50.83033206
 11
12.34922196
 21
-46.81151014
  0
LINE
  8
LAYER_77
 10
 49.567139
 20
-49.11640693
 11
49.47723002
 21
-48.00910683
  0
LINE
  8
LAYER_77
 10
49.47723002
 20
-48.00910683
 11
12.65715183
 21
-50.83033206
  0
LINE
  8
LAYER_77
 10
12.34922196
 20
-46.81151014
 11
-13.77322573
 21
-48.82191263
  0
LINE
  8
LAYER_77
 10
-13.77322573
 20
-48.82191263
 11
-13.57329902
 21
-51.4206293
  0
LINE
  8
Ebene_2
 10
-83.98281004
 20
-98.52111814
 11
-93.95334604
 21
-99.28818014
  0
LINE
  8
Ebene_2
 10
-82.51705117
 20
-87.04277045
 11
-81.68230562
 21
-98.48775985
  0
LINE
  8
Ebene_2
 10
-117.646136
 20
-101.1109321
 11
-107.878092
 21
-100.3594501
  0
LINE
  8
Ebene_2
 10
-107.878092
 20
-100.3594501
 11
-110.4053387
 21
-90.52432819
  0
LINE
  8
Ebene_2
 10
-109.141716
 20
-95.44188814
 11
-118.909758
 21
-96.19337214
  0
LINE
  8
Ebene_2
 10
-107.878092
 20
-100.3594501
 11
-105.917992
 21
-100.2086541
  0
LINE
  8
Ebene_2
 10
-111.668962
 20
-85.60676814
 11
-121.437006
 21
-86.35825014
  0
LINE
  8
Ebene_2
 10
-112.932586
 20
-80.68920614
 11
-122.700628
 21
-81.44069014
  0
LINE
  8
Ebene_2
 10
-114.196208
 20
-75.77164614
 11
-123.964252
 21
-76.52313014
  0
LINE
  8
Ebene_2
 10
-122.31301
 20
-61.53230214
 11
-128.326668
 21
-61.99495014
  0
LINE
  8
Ebene_2
 10
-122.742566
 20
-55.94880214
 11
-129.792546
 21
-56.45734614
  0
LINE
  8
Ebene_2
 10
-133.572494
 20
-39.06979414
 11
-124.097196
 21
-38.30273214
  0
LINE
  8
Ebene_2
 10
-133.0783304
 20
-44.04614674
 11
-123.6937466
 21
-43.28642841
  0
LINE
  8
Ebene_2
 10
-129.792546
 20
-56.45734614
 11
-133.0783304
 21
-44.04614674
  0
LINE
  8
Ebene_2
 10
-124.480728
 20
-33.35556414
 11
-134.836116
 21
-34.15223214
  0
LINE
  8
Ebene_2
 10
-124.864258
 20
-28.37029414
 11
-136.09974
 21
-29.23467214
  0
LINE
  8
Ebene_2
 10
-125.24779
 20
-23.38502614
 11
-137.363364
 21
-24.31711214
  0
LINE
  8
Ebene_2
 10
-139.634802
 20
-19.27649414
 11
-125.490778
 21
-18.25351014
  0
LINE
  8
Ebene_2
 10
-96.88677804
 20
-16.03551014
 11
-97.08877804
 21
-13.42351014
  0
LINE
  8
Ebene_2
 10
-97.08877804
 20
-13.42351014
 11
-3.006953266
 21
-6.185403649
  0
LINE
  8
Ebene_2
 10
-72.93170775
 20
-4.754442272
 11
-43.90055571
 21
-2.520954875
  0
LINE
  8
Ebene_2
 10
33.45179377
 20
2.28546632
 11
91.90522196
 21
4.896489864
  0
LINE
  8
Ebene_2
 10
-16.36477804
 20
96.07048986
 11
-8.183266037
 21
6.394063864
  0
LINE
  8
Ebene_2
 10
-140.73414
 20
131.4432919
 11
-138.262458
 21
121.7659359
  0
LINE
  8
Ebene_2
 10
-147.951428
 20
119.2912879
 11
-150.42311
 21
128.9686439
  0
LINE
  8
Ebene_2
 10
-152.795912
 20
118.0539639
 11
-155.267594
 21
127.7313199
  0
LINE
  8
Ebene_2
 10
-162.484234
 20
115.5767819
 11
-164.956564
 21
125.2566719
  0
LINE
  8
Ebene_2
 10
-167.328718
 20
114.3394579
 11
-169.801048
 21
124.0193479
  0
CIRCLE
  8
Ebene_2
 10
-128.274808
 20
30.91365386
 40
5.60872453
  0
LINE
  8
Ebene_2
 10
-111.985614
 20
20.26947986
 11
-111.776594
 21
18.87786986
  0
LINE
  8
Ebene_2
 10
-111.776594
 20
18.87786986
 11
-121.654006
 21
17.39557986
  0
LINE
  8
Ebene_2
 10
-111.776594
 20
18.87786986
 11
-108.7266962
 21
-1.445479146
  0
LINE
  8
Ebene_2
 10
-109.547906
 20
4.044361864
 11
-119.427904
 21
2.561683864
  0
LINE
  8
Ebene_2
 10
-110.28994
 20
8.988993864
 11
-120.169938
 21
7.506315864
  0
LINE
  8
Ebene_2
 10
-111.03383
 20
13.93334786
 11
-120.911972
 21
12.45094786
  0
LINE
  8
Ebene_2
 10
-143.607182
 20
-4.086226136
 11
-8.183266037
 21
6.394063864
  0
LINE
  8
Ebene_2
 10
-142.598912
 20
-8.017750136
 11
-7.938940037
 21
2.401013864
  0
LINE
  8
Ebene_2
 10
110.125222
 20
-131.8275101
 11
108.835222
 21
-111.8535101
  0
LINE
  8
Ebene_2
 10
99.38322196
 20
-99.60551014
 11
155.563222
 21
-103.4435101
  0
LINE
  8
Ebene_2
 10
99.38322196
 20
-99.60551014
 11
100.219222
 21
-111.2955101
  0
LINE
  8
Ebene_2
 10
100.219222
 20
-111.2955101
 11
3.213221963
 21
-117.2275101
  0
LINE
  8
Ebene_2
 10
3.213221963
 20
-117.2275101
 11
1.507221963
 21
-103.1075101
  0
LINE
  8
Ebene_2
 10
1.507221963
 20
-103.1075101
 11
-85.47077804
 21
-112.9015101
  0
LINE
  8
Ebene_2
 10
109.359222
 20
-119.9675101
 11
67.83922196
 21
-122.9295101
  0
LINE
  8
Ebene_2
 10
67.83922196
 20
-122.9295101
 11
69.60322196
 21
-148.9115101
  0
LINE
  8
Ebene_2
 10
69.60322196
 20
-148.9115101
 11
108.889222
 21
-146.0455101
  0
LINE
  8
Ebene_2
 10
-126.0288719
 20
-70.66423561
 11
-115.7125567
 21
-69.8705726
  0
LINE
  8
Ebene_2
 10
-126.0288719
 20
-70.66423561
 11
-128.326668
 21
-61.99495014
  0
TEXT
  8
Ebene_2
 10
-171.7216655
 20
-81.21706122
 40
       3.5
  1
690.50
 41
0.6103888889
  0
LINE
  8
LAYER_75
 10
-145.4437404
 20
3.183278968
 11
-162.7271967
 21
-1.245531153
  0
LINE
  8
LAYER_75
 10
-145.4437404
 20
3.183278968
 11
-141.961294
 21
-10.49022414
  0
LINE
  8
Ebene_2
 10
-181.4800766
 20
143.8016476
 11
-184.897188
 21
157.1338459
  0
LINE
  8
Ebene_2
 10
-184.897188
 20
157.1338459
 11
-188.297704
 21
172.3862819
  0
LINE
  8
Ebene_2
 10
-188.297704
 20
172.3862819
 11
-191.852066
 21
190.5574079
  0
LINE
  8
Ebene_2
 10
-98.16765204
 20
94.91782186
 11
-100.1459603
 21
94.6240592
  0
LINE
  8
Ebene_2
 10
-87.70738604
 20
23.84278186
 11
-88.0011487
 21
25.82109011
  0
LINE
  8
Ebene_2
 10
-137.374704
 20
122.0086379
 11
-136.8985663
 21
120.0661413
  0
LINE
  8
Ebene_2
 10
-171.93407
 20
106.4320439
 11
-161.5648808
 21
109.0891776
  0
LINE
  8
Ebene_2
 10
-145.0642233
 20
1.702355023
 11
-134.7255982
 21
4.351656603
  0
LINE
  8
Ebene_2
 10
-159.5014286
 20
58.03816691
 11
-145.0642233
 21
1.702355023
  0
LINE
  8
Ebene_2
 10
-149.94031
 20
63.72549386
 11
-161.5648808
 21
109.0891776
  0
LINE
  8
Ebene_2
 10
-149.1618689
 20
60.68770798
 11
-134.7255982
 21
4.351656603
  0
LINE
  8
Ebene_2
 10
-149.94031
 20
63.72549386
 11
-160.2799201
 21
61.07593987
  0
LINE
  8
Ebene_2
 10
-149.1618689
 20
60.68770798
 11
-159.5014286
 21
58.03816691
  0
ARC
  8
Ebene_2
 10
111.570497
 20
-142.9974436
 40
2.723387406
 50
85.22453766
 51
162.0804923
  0
ARC
  8
Ebene_2
 10
110.5386279
 20
-153.1639163
 40
12.94175111
 50
49.88258741
 51
84.41912581
  0
ARC
  8
Ebene_2
 10
147.1492164
 20
-54.06389802
 40
15.84795623
 50
39.42236978
 51
58.08578426
  0
ARC
  8
Ebene_2
 10
147.7665023
 20
-53.07243207
 40
14.68003221
 50
58.08515905
 51
81.34656463
  0
ARC
  8
Ebene_2
 10
142.7010777
 20
-86.41562006
 40
48.40578924
 50
81.35717922
 51
88.36616322
  0
ARC
  8
Ebene_2
 10
142.5716505
 20
-90.95010792
 40
52.94212383
 50
88.36606865
 51
99.37762843
  0
ARC
  8
Ebene_2
 10
121.363597
 20
37.4963309
 40
77.24339454
 50
271.8336565
 51
279.3742675
  0
LINE
  8
Ebene_2
 10
123.835222
 20
-39.70751014
 11
118.799222
 21
-39.90151014
  0
LINE
  8
Ebene_2
 10
118.801222
 20
-36.91351014
 11
123.429222
 21
-36.75751014
  0
ARC
  8
Ebene_2
 10
120.7107679
 20
35.76225774
 40
72.57070156
 50
272.1467671
 51
280.2267064
  0
ARC
  8
Ebene_2
 10
141.6069473
 20
-80.03202016
 40
45.09392847
 50
87.21088072
 51
100.2339274
  0
ARC
  8
Ebene_2
 10
141.5465408
 20
-81.27601253
 40
46.33938659
 50
78.77229356
 51
87.21112537
  0
ARC
  8
Ebene_2
 10
147.0359335
 20
-53.60378741
 40
18.12794492
 50
57.0749562
 51
78.76062835
  0
ARC
  8
Ebene_2
 10
146.4164578
 20
-54.56088993
 40
19.26803059
 50
47.67003099
 51
57.07569323
  0
LINE
  8
Ebene_2
 10
123.835222
 20
-39.70751014
 11
118.799222
 21
-39.90151014
  0
ARC
  8
Ebene_2
 10
121.363597
 20
37.4963309
 40
77.24339454
 50
271.8336565
 51
279.3742675
  0
ARC
  8
Ebene_2
 10
142.5716505
 20
-90.95010792
 40
52.94212383
 50
88.36606865
 51
99.37762843
  0
ARC
  8
Ebene_2
 10
142.7010777
 20
-86.41562006
 40
48.40578924
 50
81.35717922
 51
88.36616322
  0
ARC
  8
Ebene_2
 10
147.7665023
 20
-53.07243207
 40
14.68003221
 50
58.08515905
 51
81.34656463
  0
ARC
  8
Ebene_2
 10
147.1492164
 20
-54.06389802
 40
15.84795623
 50
39.42236978
 51
58.08578426
  0
ARC
  8
Ebene_2
 10
146.4164578
 20
-54.56088993
 40
19.26803059
 50
47.67003099
 51
57.07569323
  0
ARC
  8
Ebene_2
 10
147.0359335
 20
-53.60378741
 40
18.12794492
 50
57.0749562
 51
78.76062835
  0
ARC
  8
Ebene_2
 10
141.5465408
 20
-81.27601253
 40
46.33938659
 50
78.77229356
 51
87.21112537
  0
ARC
  8
Ebene_2
 10
141.6069473
 20
-80.03202016
 40
45.09392847
 50
87.21088072
 51
100.2339274
  0
ARC
  8
Ebene_2
 10
120.7107679
 20
35.76225774
 40
72.57070156
 50
272.1467671
 51
280.2267064
  0
LINE
  8
Ebene_2
 10
118.801222
 20
-36.91351014
 11
123.429222
 21
-36.75751014
  0
LINE
  8
Ebene_2
 10
149.9810929
 20
-38.17867119
 11
149.9810929
 21
-38.17867119
  0
LINE
  8
Ebene_2
 10
97.96488321
 20
10.95115188
 11
197.8745938
 21
15.45160844
  0
LINE
  8
Ebene_2
 10
-8.183266037
 20
6.394063864
 11
92.96488321
 21
10.95030617
  0
LINE
  8
Ebene_2
 10
93.2521839
 20
6.990621537
 11
95.48310843
 21
-23.76337381
  0
LINE
  8
Ebene_2
 10
-7.938940037
 20
2.401013864
 11
93.2521839
 21
6.990621537
  0
LINE
  8
Ebene_2
 10
96.25020289
 20
7.126599184
 11
197.9286154
 21
11.73830824
  0
LINE
  8
Ebene_2
 10
96.25020289
 20
7.126599184
 11
98.45873403
 21
-23.31869645
  0
LINE
  8
Ebene_2
 10
91.76196589
 20
6.923031459
 11
96.28480776
 21
-57.05839004
  0
LINE
  8
LAYER_73
 10
34.61522196
 20
-12.85151014
 11
-2.275832037
 21
-15.68877414
  0
LINE
  8
LAYER_73
 10
-2.275832037
 20
-15.68877414
 11
-2.809640421
 21
-8.750145294
  0
LINE
  8
LAYER_73
 10
-2.809640421
 20
-8.750145294
 11
-125.646662
 21
-18.20034614
  0
LINE
  8
LAYER_73
 10
-125.646662
 20
-18.20034614
 11
-123.4022386
 21
-47.37413897
  0
LINE
  8
LAYER_73
 10
-123.4022386
 20
-47.37413897
 11
-14.51868209
 21
-39.03333655
  0
LINE
  8
LAYER_73
 10
-14.51868209
 20
-39.03333655
 11
-13.77322573
 21
-48.82191263
  0
LINE
  8
LAYER_73
 10
-13.77322573
 20
-48.82191263
 11
12.34922196
 21
-46.81151014
  0
LINE
  8
LAYER_73
 10
12.34922196
 20
-46.81151014
 11
12.65715183
 21
-50.83033206
  0
LINE
  8
LAYER_73
 10
12.65715183
 20
-50.83033206
 11
63.31322196
 21
-46.89351014
  0
LINE
  8
Ebene_2
 10
134.787222
 20
81.45448986
 11
136.7872219
 21
81.45514586
  0
LINE
  8
Ebene_2
 10
134.787222
 20
81.45448986
 11
134.7865736
 21
83.45448976
  0
LINE
  8
Ebene_2
 10
134.7614491
 20
160.9544857
 11
132.7614492
 21
160.9538297
  0
LINE
  8
Ebene_2
 10
123.2530208
 20
186.9507124
 11
125.2530207
 21
186.9513683
  0
LINE
  8
Ebene_2
 10
9.477460209
 20
-106.8368676
 11
9.919868464
 21
-112.9026176
  0
LINE
  8
Ebene_2
 10
9.919868464
 20
-112.9026176
 11
13.44852372
 21
-112.6452535
  0
LINE
  8
Ebene_2
 10
13.44852372
 20
-112.6452535
 11
13.00611546
 21
-106.5795035
  0
LINE
  8
Ebene_2
 10
13.00611546
 20
-106.5795035
 11
9.477460209
 21
-106.8368676
  0
LINE
  8
Ebene_2
 10
16.87956832
 20
-107.4837349
 11
17.23587891
 21
-112.369021
  0
LINE
  8
Ebene_2
 10
17.23587891
 20
-112.369021
 11
26.36777898
 21
-111.7029817
  0
LINE
  8
Ebene_2
 10
26.36777898
 20
-111.7029817
 11
26.0114684
 21
-106.8176955
  0
LINE
  8
Ebene_2
 10
26.0114684
 20
-106.8176955
 11
16.87956832
 21
-107.4837349
  0
LINE
  8
Ebene_2
 10
-81.75704473
 20
-102.4985807
 11
35.04187523
 21
-95.81481977
  0
ARC
  8
Ebene_2
 10
41.26669806
 20
-204.5937829
 40
108.9569238
 50
86.05134437
 51
93.27515102
  0
LINE
  8
Ebene_2
 10
48.76974428
 20
-95.89550538
 11
56.85464775
 21
-96.73670932
  0
ARC
  8
Ebene_2
 10
54.41335947
 20
-120.2001991
 40
23.59015138
 50
58.80102518
 51
84.05996196
  0
LINE
  8
Ebene_2
 10
66.63333399
 20
-100.0218081
 11
76.12058455
 21
-105.8422072
  0
ARC
  8
Ebene_2
 10
80.61781023
 20
-97.76524158
 40
9.244588276
 50
240.8910954
 51
273.0966453
  0
LINE
  8
Ebene_2
 10
81.11720611
 20
-106.9963312
 11
82.4558979
 21
-106.9963312
  0
ARC
  8
Ebene_2
 10
82.4558979
 20
-101.9426758
 40
5.053655407
 50
       270
 51
319.9866105
  0
ARC
  8
Ebene_2
 10
74.05946461
 20
-94.89388739
 40
16.01657064
 50
319.9866105
 51
335.4276165
  0
LINE
  8
Ebene_2
 10
90.8948278
 20
-105.5426813
 11
93.80502736
 21
-105.3753448
  0
LINE
  8
Ebene_2
 10
90.8948278
 20
-105.5426813
 11
88.98864709
 21
-103.5491946
  0
LINE
  8
Ebene_2
 10
95.64194804
 20
-102.9494877
 11
93.80502736
 21
-105.3753448
  0
LINE
  8
Ebene_2
 10
95.64194804
 20
-102.9494877
 11
95.42462323
 21
-99.16992593
  0
LINE
  8
Ebene_2
 10
93.51742397
 20
-97.18828411
 11
90.44374687
 21
-97.36502054
  0
LINE
  8
Ebene_2
 10
93.51742397
 20
-97.18828411
 11
95.42462323
 21
-99.16992593
  0
LINE
  8
Ebene_2
 10
88.76199165
 20
-99.60736084
 11
88.98864709
 21
-103.5491946
  0
LINE
  8
Ebene_2
 10
88.76199165
 20
-99.60736084
 11
90.44374687
 21
-97.36502054
  0
LINE
  8
Ebene_2
 10
87.66922538
 20
-61.295043
 11
89.10970067
 21
-98.70624407
  0
ARC
  8
Ebene_2
 10
63.10455752
 20
-62.41253323
 40
24.59007303
 50
2.604690616
 51
12.28924018
  0
ARC
  8
Ebene_2
 10
81.90839527
 20
-58.66929644
 40
5.431338718
 50
15.92982289
 51
86.3050176
  0
LINE
  8
Ebene_2
 10
-49.75672162
 20
-64.95350189
 11
-34.41179079
 21
-63.89576281
  0
ARC
  8
Ebene_2
 10
-33.96358715
 20
-70.39798431
 40
6.517650722
 50
77.11803645
 51
93.94320919
  0
ARC
  8
Ebene_2
 10
-33.0543809
 20
-66.42243085
 40
2.439454885
 50
15.72249466
 51
77.11803645
  0
ARC
  8
Ebene_2
 10
-53.07438028
 20
-72.05828081
 40
23.23760817
 50
 2.6826993
 51
15.72249466
  0
ARC
  8
Ebene_2
 10
-187.5123954
 20
-78.35753284
 40
157.8231218
 50
358.4660498
 51
 2.6826993
  0
LINE
  8
Ebene_2
 10
-29.74583131
 20
-82.58234475
 11
-29.86848699
 21
-86.58220774
  0
ARC
  8
Ebene_2
 10
-10.45005867
 20
-87.17767326
 40
19.42755614
 50
178.2435771
 51
190.3776746
  0
ARC
  8
Ebene_2
 10
 -18.12479
 20
-88.58315906
 40
11.62519166
 50
190.3776746
 51
202.5631823
  0
ARC
  8
Ebene_2
 10
-30.59864671
 20
-93.76612251
 40
1.882591692
 50
290.7748427
 51
22.56318229
  0
ARC
  8
Ebene_2
 10
-7.196296466
 20
-85.91861404
 40
19.83348264
 50
177.2834664
 51
 201.63261
  0
LINE
  8
Ebene_2
 10
-27.00749103
 20
-84.9786122
 11
-27.00602858
 21
-81.03944976
  0
ARC
  8
Ebene_2
 10
41.20113182
 20
-81.06477226
 40
68.2071651
 50
176.4110961
 51
179.9787284
  0
LINE
  8
Ebene_2
 10
-26.87227016
 20
-76.79519221
 11
-26.8610724
 21
-73.55393908
  0
ARC
  8
Ebene_2
 10
-60.23612305
 20
-73.43863622
 40
33.37524982
 50
359.8020575
 51
11.75418064
  0
ARC
  8
Ebene_2
 10
-24.61911953
 20
-66.02757753
 40
3.004617289
 50
109.5573837
 51
191.7541806
  0
ARC
  8
Ebene_2
 10
-3.854697142
 20
-76.85824399
 40
18.27508205
 50
 31.825387
 51
50.21372506
  0
ARC
  8
Ebene_2
 10
-9.338371563
 20
-82.02789627
 40
25.70430739
 50
5.220579145
 51
35.17245427
  0
ARC
  8
Ebene_2
 10
-4.464113681
 20
-81.58253879
 40
20.8097458
 50
349.1878477
 51
5.220579145
  0
ARC
  8
Ebene_2
 10
-10.64951208
 20
-80.40125124
 40
27.10693514
 50
335.4009086
 51
349.1878477
  0
ARC
  8
Ebene_2
 10
11.19577659
 20
-90.40238623
 40
3.08112947
 50
299.4171079
 51
335.4009086
  0
LINE
  8
Ebene_2
 10
-25.62491751
 20
-63.19630653
 11
4.26703646
 21
-61.13582881
  0
ARC
  8
Ebene_2
 10
2.833609885
 20
-68.82677724
 40
7.823387978
 50
50.21372506
 51
79.44243838
  0
LINE
  8
Ebene_2
 10
63.52108175
 20
-60.13469291
 11
64.69658248
 21
-90.66412589
  0
ARC
  8
Ebene_2
 10
61.0033457
 20
-90.80632973
 40
3.695973454
 50
302.0132577
 51
2.205018877
  0
ARC
  8
Ebene_2
 10
61.61157733
 20
-91.77920281
 40
2.548616603
 50
257.7183562
 51
302.0132577
  0
ARC
  8
Ebene_2
 10
41.26669806
 20
-204.5937829
 40
111.9569238
 50
86.05134437
 51
93.27515102
  0
LINE
  8
Ebene_2
 10
49.08020709
 20
-92.91161315
 11
57.16511057
 21
-93.75281709
  0
LINE
  8
Ebene_2
 10
61.06944235
 20
-94.2694912
 11
57.16511057
 21
-93.75281709
  0
ARC
  8
Ebene_2
 10
-12.9063331
 20
-81.3545689
 40
32.06288474
 50
338.7981858
 51
1.883312416
  0
ARC
  8
Ebene_2
 10
-9.054809019
 20
-81.22792368
 40
28.20927905
 50
1.883312416
 51
41.90667946
  0
ARC
  8
Ebene_2
 10
13.05918958
 20
-61.38151358
 40
1.504504418
 50
120.1613308
 51
221.9066795
  0
ARC
  8
Ebene_2
 10
17.52771536
 20
-93.2531635
 40
0.6204049515
 50
150.7734822
 51
247.3718595
  0
LINE
  8
Ebene_2
 10
17.28901536
 20
-93.82581052
 11
34.8704821
 21
-92.81971971
  0
LINE
  8
Ebene_2
 10
12.3032716
 20
-60.08069786
 11
60.87043835
 21
-56.7329219
  0
ARC
  8
Ebene_2
 10
60.23182101
 20
-59.96409914
 40
3.293681599
 50
357.0310795
 51
78.82001613
  0
LINE
  8
Ebene_2
 10
67.94065869
 20
-97.89086883
 11
77.42790925
 21
-103.7112679
  0
LINE
  8
Ebene_2
 10
65.99732009
 20
-59.46945657
 11
67.19473135
 21
-90.56793754
  0
ARC
  8
Ebene_2
 10
69.55493469
 20
-59.92824711
 40
3.587075466
 50
103.1806187
 51
172.651684
  0
ARC
  8
Ebene_2
 10
39.55712828
 20
-90.31211983
 40
27.63878698
 50
351.224382
 51
359.469677
  0
ARC
  8
Ebene_2
 10
70.79237124
 20
-95.13398124
 40
3.966445965
 50
171.224382
 51
224.0313889
  0
ARC
  8
Ebene_2
 10
80.84507712
 20
-94.49551298
 40
9.828894945
 50
249.6554058
 51
273.170416
  0
ARC
  8
Ebene_2
 10
79.18787388
 20
-64.57709727
 40
39.79317236
 50
273.170416
 51
274.3308572
  0
ARC
  8
Ebene_2
 10
81.9801687
 20
-101.447834
 40
2.816853728
 50
274.3308572
 51
325.519444
  0
LINE
  8
Ebene_2
 10
84.30215294
 20
-103.0425297
 11
85.14860684
 21
-101.8100358
  0
ARC
  8
Ebene_2
 10
78.4660144
 20
-97.22055547
 40
8.106810159
 50
325.519444
 51
357.4273979
  0
LINE
  8
Ebene_2
 10
85.17107651
 20
-61.39123135
 11
86.56465409
 21
-97.584432
  0
ARC
  8
Ebene_2
 10
72.42934755
 20
-62.11063268
 40
12.76202159
 50
3.231503742
 51
21.74666145
  0
ARC
  8
Ebene_2
 10
81.91461416
 20
-58.32703567
 40
2.54997532
 50
21.74666145
 51
89.49264911
  0
LINE
  8
Ebene_2
 10
81.79420319
 20
-55.77589411
 11
68.73700427
 21
-56.43566923
  0
LINE
  8
Ebene_2
 10
81.93719375
 20
-55.77716032
 11
81.79420319
 21
-55.77589411
  0
LINE
  8
Ebene_2
 10
-30.96700408
 20
-60.55742234
 11
-76.11151489
 21
-63.66927172
  0
ARC
  8
Ebene_2
 10
-22.56916312
 20
-92.01528588
 40
3.295815433
 50
 201.63261
 51
252.6567478
  0
LINE
  8
Ebene_2
 10
-23.55163097
 20
-95.16126049
 11
12.70911606
 21
-93.08625703
  0
LINE
  8
Ebene_2
 10
-81.68230562
 20
-98.48775985
 11
-29.93089808
 21
-95.52631093
  0
LINE
  8
Ebene_2
 10
-82.51705117
 20
-87.04277045
 11
-81.68230562
 21
-98.48775985
  0
LINE
  8
Ebene_2
 10
65.50722196
 20
-46.72351014
 11
66.07801626
 21
-54.06683733
  0
LINE
  8
Ebene_2
 10
82.25841744
 20
-53.24924803
 11
66.07801626
 21
-54.06683733
  0
LINE
  8
Ebene_2
 10
63.31322196
 20
-46.89351014
 11
63.86719427
 21
-54.02042068
  0
LINE
  8
Ebene_2
 10
-27.59116456
 20
-60.32472286
 11
63.86719427
 21
-54.02042068
  0
LINE
  8
Ebene_2
 10
-33.42477804
 20
-45.89151014
 11
-66.58086004
 21
-48.33843014
  0
LINE
  8
Ebene_2
 10
-66.58086004
 20
-48.33843014
 11
-66.88768604
 21
-44.35021414
  0
LINE
  8
Ebene_2
 10
-28.30773271
 20
-49.92925885
 11
-27.59116456
 21
-60.32472286
  0
LINE
  8
Ebene_2
 10
-28.30773271
 20
-49.92925885
 11
-14.11278204
 21
-48.77509014
  0
LINE
  8
Ebene_2
 10
-33.08277804
 20
-50.31751014
 11
-33.42477804
 21
-45.89151014
  0
LINE
  8
Ebene_2
 10
-31.68070803
 20
-50.20351007
 11
-33.08277804
 21
-50.31751014
  0
LINE
  8
Ebene_2
 10
-31.68070803
 20
-50.20351007
 11
-30.96700408
 21
-60.55742234
  0
LINE
  8
Ebene_2
 10
-76.42828404
 20
-66.87136014
 11
-76.55876427
 21
-64.87562095
  0
LINE
  8
Ebene_2
 10
-83.94626804
 20
-67.44713214
 11
-82.46245204
 21
-67.33558614
  0
LINE
  8
Ebene_2
 10
-83.94626804
 20
-67.44713214
 11
-83.80078357
 21
-69.44183368
  0
LINE
  8
Ebene_2
 10
-48.54149404
 20
-84.40094814
 11
-48.6949064
 21
-82.40684065
  0
LINE
  8
Ebene_2
 10
-81.34677804
 20
-128.9155101
 11
-79.40848149
 21
-128.4225532
  0
LINE
  8
LAYER_73
 10
64.85522196
 20
-38.34751014
 11
65.31722196
 21
-44.29951014
  0
LINE
  8
LAYER_73
 10
63.12483472
 20
-44.46938517
 11
63.31322196
 21
-46.89351014
  0
LINE
  8
LAYER_73
 10
63.12483472
 20
-44.46938517
 11
65.31722196
 21
-44.29951014
  0
LINE
  8
LAYER_73
 10
62.66228725
 20
-38.51742759
 11
64.85522196
 21
-38.34751014
  0
LINE
  8
LAYER_73
 10
62.66228725
 20
-38.51742759
 11
61.27122196
 21
-20.61751014
  0
LINE
  8
Ebene_2
 10
-80.26477804
 20
157.5704899
 11
-119.036778
 21
150.4904899
  0
LINE
  8
LAYER_73
 10
-173.5574669
 20
112.7473341
 11
-179.0342776
 21
134.0530601
  0
LINE
  8
LAYER_73
 10
-127.2568601
 20
124.582182
 11
-173.5574669
 21
112.7473341
  0
LINE
  8
Ebene_2
 10
-176.5327557
 20
111.9868238
 11
-181.95574
 21
133.3100659
  0
LINE
  8
Ebene_2
 10
-178.9850123
 20
134.0655893
 11
-181.4800766
 21
143.8016476
  0
LINE
  8
Ebene_2
 10
-160.2799201
 20
61.07593987
 11
-161.7361798
 21
66.65724433
  0
LINE
  8
Ebene_2
 10
-169.3669625
 20
96.43252489
 11
-171.93407
 21
106.4320439
  0
TEXT
  8
Ebene_2
 10
-169.856023
 20
55.22231678
 40
       3.5
  1
Compognastrasse
 50
       285
 41
0.7985555556
  0
LINE
  8
LAYER_80
 10
-194.890778
 20
-21.75951014
 11
-179.698778
 21
-18.21751014
  0
LINE
  8
LAYER_80
 10
-179.698778
 20
-18.21751014
 11
-177.460778
 21
-27.81951014
  0
LINE
  8
LAYER_80
 10
-177.460778
 20
-27.81951014
 11
-181.354778
 21
-28.72751014
  0
LINE
  8
LAYER_80
 10
-181.354778
 20
-28.72751014
 11
-180.734778
 21
-31.42551014
  0
LINE
  8
LAYER_80
 10
-180.734778
 20
-31.42551014
 11
-163.118778
 21
-27.37751014
  0
LINE
  8
LAYER_80
 10
-163.118778
 20
-27.37751014
 11
-159.224778
 21
-43.79751014
  0
LINE
  8
LAYER_80
 10
-159.224778
 20
-43.79751014
 11
-176.944778
 21
-47.91951014
  0
LINE
  8
LAYER_80
 10
-176.944778
 20
-47.91951014
 11
-181.418778
 21
-28.44751014
  0
LINE
  8
LAYER_80
 10
-181.418778
 20
-28.44751014
 11
-192.734778
 21
-31.01151014
  0
LINE
  8
LAYER_80
 10
-192.734778
 20
-31.01151014
 11
-194.890778
 21
-21.75951014
  0
LINE
  8
LAYER_80
 10
-190.198778
 20
-30.43751014
 11
-188.070778
 21
-39.82751014
  0
LINE
  8
LAYER_80
 10
-188.070778
 20
-39.82751014
 11
-179.262778
 21
-37.83151014
  0
LINE
  8
LAYER_80
 10
-157.020038
 20
116.9748059
 11
-137.374704
 21
122.0086379
  0
LINE
  8
LAYER_80
 10
-137.374704
 20
122.0086379
 11
-129.249882
 21
90.30236386
  0
LINE
  8
LAYER_80
 10
-129.249882
 20
90.30236386
 11
-98.16765204
 21
94.91782186
  0
LINE
  8
LAYER_80
 10
-98.16765204
 20
94.91782186
 11
-87.70738604
 21
23.84278186
  0
LINE
  8
LAYER_80
 10
-87.70738604
 20
23.84278186
 11
-115.31536
 21
19.77940186
  0
LINE
  8
LAYER_80
 10
-115.31536
 20
19.77940186
 11
-128.241432
 21
69.28589386
  0
LINE
  8
LAYER_80
 10
-128.241432
 20
69.28589386
 11
-128.417392
 21
70.56436786
  0
LINE
  8
LAYER_80
 10
-128.417392
 20
70.56436786
 11
-118.273354
 21
72.05741386
  0
LINE
  8
LAYER_80
 10
-118.273354
 20
72.05741386
 11
-111.997612
 21
29.41519986
  0
LINE
  8
LAYER_80
 10
-111.997612
 20
29.41519986
 11
-113.303544
 21
29.22300186
  0
LINE
  8
LAYER_80
 10
-113.303544
 20
29.22300186
 11
-111.985614
 21
20.26947986
  0
LINE
  8
LAYER_80
 10
-128.241432
 20
69.28589386
 11
-146.646744
 21
64.56947986
  0
LINE
  8
LAYER_80
 10
-146.646744
 20
64.56947986
 11
-159.887392
 21
116.2400379
  0
LINE
  8
LAYER_80
 10
-159.887392
 20
116.2400379
 11
-137.374704
 21
122.0086379
  0
LINE
  8
LAYER_80
 10
-155.728778
 20
182.9024899
 11
-126.850778
 21
188.6724899
  0
LINE
  8
LAYER_80
 10
-126.850778
 20
188.6724899
 11
-119.036778
 21
150.4904899
  0
LINE
  8
LAYER_80
 10
-119.036778
 20
150.4904899
 11
-148.252778
 21
144.6464899
  0
LINE
  8
LAYER_80
 10
-148.252778
 20
144.6464899
 11
-155.728778
 21
182.9024899
  0
LINE
  8
LAYER_80
 10
123.2614497
 20
160.9507137
 11
123.2530208
 21
186.9507124
  0
LINE
  8
LAYER_80
 10
123.2530208
 20
186.9507124
 11
187.2530174
 21
186.9717042
  0
LINE
  8
LAYER_80
 10
187.2530174
 20
186.9717042
 11
187.2872191
 21
81.47170973
  0
LINE
  8
LAYER_80
 10
187.2872191
 20
81.47170973
 11
134.787222
 21
81.45448986
  0
LINE
  8
LAYER_80
 10
134.787222
 20
81.45448986
 11
134.7614491
 21
160.9544857
  0
LINE
  8
LAYER_80
 10
134.7614491
 20
160.9544857
 11
123.2614497
 21
160.9507137
  0
LINE
  8
LAYER_80
 10
119.049222
 20
-94.50551014
 11
117.209222
 21
-71.82751014
  0
LINE
  8
LAYER_80
 10
117.209222
 20
-71.82751014
 11
118.861222
 21
-71.69351014
  0
LINE
  8
LAYER_80
 10
118.861222
 20
-71.69351014
 11
117.141222
 21
-50.49151014
  0
LINE
  8
LAYER_80
 10
117.141222
 20
-50.49151014
 11
138.403222
 21
-48.82751014
  0
LINE
  8
LAYER_80
 10
138.403222
 20
-48.82751014
 11
138.755222
 21
-52.44151014
  0
LINE
  8
LAYER_80
 10
138.755222
 20
-52.44151014
 11
149.0650113
 21
-51.43734693
  0
LINE
  8
LAYER_80
 10
149.0650113
 20
-51.43734693
 11
150.463222
 21
-65.80751014
  0
LINE
  8
LAYER_80
 10
150.463222
 20
-65.80751014
 11
147.059222
 21
-66.07151014
  0
LINE
  8
LAYER_80
 10
147.059222
 20
-66.07151014
 11
147.221222
 21
-68.16551014
  0
LINE
  8
LAYER_80
 10
147.221222
 20
-68.16551014
 11
154.047222
 21
-67.73751014
  0
LINE
  8
LAYER_80
 10
154.047222
 20
-67.73751014
 11
155.853222
 21
-91.66551014
  0
LINE
  8
LAYER_80
 10
155.853222
 20
-91.66551014
 11
147.687222
 21
-92.29751014
  0
LINE
  8
LAYER_80
 10
147.687222
 20
-92.29751014
 11
147.869222
 21
-94.65151014
  0
LINE
  8
LAYER_80
 10
147.869222
 20
-94.65151014
 11
127.421222
 21
-96.22751014
  0
LINE
  8
LAYER_80
 10
127.421222
 20
-96.22751014
 11
127.239222
 21
-93.87351014
  0
LINE
  8
LAYER_80
 10
127.239222
 20
-93.87351014
 11
119.049222
 21
-94.50551014
  0
LINE
  8
LAYER_80
 10
63.05922196
 20
-154.9795101
 11
86.33922196
 21
-153.3675101
  0
LINE
  8
LAYER_80
 10
86.33922196
 20
-153.3675101
 11
86.48122196
 21
-155.4035101
  0
LINE
  8
LAYER_80
 10
86.48122196
 20
-155.4035101
 11
92.69122196
 21
-154.9715101
  0
LINE
  8
LAYER_80
 10
92.69122196
 20
-154.9715101
 11
92.55322196
 21
-152.9755101
  0
LINE
  8
LAYER_80
 10
92.55322196
 20
-152.9755101
 11
111.983222
 21
-151.6235101
  0
LINE
  8
LAYER_80
 10
111.983222
 20
-151.6235101
 11
113.013222
 21
-166.6995101
  0
LINE
  8
LAYER_80
 10
113.013222
 20
-166.6995101
 11
110.209222
 21
-166.8915101
  0
LINE
  8
LAYER_80
 10
110.209222
 20
-166.8915101
 11
111.0161612
 21
-178.8655607
  0
LINE
  8
LAYER_80
 10
111.0161612
 20
-178.8655607
 11
95.40322196
 21
-180.0995101
  0
LINE
  8
LAYER_80
 10
95.40322196
 20
-180.0995101
 11
96.44372535
 21
-193.2648112
  0
LINE
  8
LAYER_80
 10
96.44372535
 20
-193.2648112
 11
74.54072895
 21
-194.781462
  0
LINE
  8
LAYER_80
 10
74.54072895
 20
-194.781462
 11
73.30322196
 21
-179.1235101
  0
LINE
  8
LAYER_80
 10
73.30322196
 20
-179.1235101
 11
64.77522196
 21
-179.7975101
  0
LINE
  8
LAYER_80
 10
64.77522196
 20
-179.7975101
 11
63.05922196
 21
-154.9795101
  0
LINE
  8
LAYER_80
 10
-70.15077804
 20
-189.8995101
 11
-75.10077804
 21
-170.4935101
  0
LINE
  8
LAYER_80
 10
-75.10077804
 20
-170.4935101
 11
-39.87077804
 21
-161.5635101
  0
LINE
  8
LAYER_80
 10
-39.87077804
 20
-161.5635101
 11
-34.97077804
 21
-180.9355101
  0
LINE
  8
LAYER_80
 10
-34.97077804
 20
-180.9355101
 11
-70.15077804
 21
-189.8995101
  0
LINE
  8
LAYER_80
 10
-70.91077804
 20
-169.4315101
 11
-81.34677804
 21
-128.9155101
  0
LINE
  8
LAYER_80
 10
-81.34677804
 20
-128.9155101
 11
-50.36277804
 21
-121.0355101
  0
LINE
  8
LAYER_80
 10
-50.36277804
 20
-121.0355101
 11
-39.87077804
 21
-161.5635101
  0
LINE
  8
LAYER_80
 10
-180.544778
 20
-114.6575101
 11
-181.702778
 21
-106.3835101
  0
LINE
  8
LAYER_80
 10
-181.702778
 20
-106.3835101
 11
-176.760778
 21
-105.5435101
  0
LINE
  8
LAYER_80
 10
-176.760778
 20
-105.5435101
 11
-175.582778
 21
-113.9635101
  0
LINE
  8
LAYER_80
 10
-175.582778
 20
-113.9635101
 11
-180.544778
 21
-114.6575101
  0
LINE
  8
LAYER_80
 10
-161.016778
 20
-119.0015101
 11
-162.662778
 21
-112.1035101
  0
LINE
  8
LAYER_80
 10
-162.662778
 20
-112.1035101
 11
-155.836778
 21
-110.4755101
  0
LINE
  8
LAYER_80
 10
-155.836778
 20
-110.4755101
 11
-154.184778
 21
-117.4015101
  0
LINE
  8
LAYER_80
 10
-154.184778
 20
-117.4015101
 11
-161.016778
 21
-119.0015101
  0
LINE
  8
LAYER_80
 10
34.61522196
 20
-12.85151014
 11
35.36522196
 21
-22.60951014
  0
LINE
  8
LAYER_80
 10
35.36522196
 20
-22.60951014
 11
61.27122196
 21
-20.61751014
  0
LINE
  8
Ebene_2
 10
-15.07474404
 20
106.4320439
 11
-2.16864869
 21
210.0938108
  0
ARC
  8
LAYER_70
 10
73.31942921
 20
25.88901674
 40
144.786806
 50
328.7886594
 51
331.6047335
  0
LINE
  8
LAYER_70
 10
133.3483468
 20
-210.0938108
 11
133.9847387
 21
-204.5538482
  0
LINE
  8
LAYER_71
 10
-102.172778
 20
183.5184899
 11
-107.7052663
 21
210.0938108
  0
ARC
  8
LAYER_76
 10
18.4334837
 20
-193.9575495
 40
85.88957437
 50
349.1713672
 51
4.51890827
  0
LINE
  8
Ebene_2
 10
-198.5605417
 20
210.0938108
 11
-193.488778
 21
182.7104899
  0
LINE
  8
Ebene_2
 10
-106.1038922
 20
-210.0938108
 11
-176.166778
 21
62.75848986
  0
LINE
  8
Ebene_2
 10
-176.5327557
 20
111.9868238
 11
-93.69278586
 21
-210.0938108
  0
LINE
  8
Ebene_2
 10
3.213221963
 20
-117.2275101
 11
14.24752263
 21
-210.0938108
  0
LINE
  8
Ebene_2
 10
110.9648832
 20
160.9507137
 11
110.9648832
 21
210.0938108
  0
LINE
  8
Ebene_2
 10
92.96488321
 20
10.95030617
 11
92.96488321
 21
210.0938108
  0
LINE
  8
LAYER_72
 10
-187.6407997
 20
193.3152164
 11
-200.6866253
 21
190.3421273
  0
LINE
  8
Ebene_2
 10
-192.664778
 20
113.4624899
 11
-200.6866253
 21
111.4561457
  0
LINE
  8
LAYER_74
 10
-200.6866253
 20
64.12922728
 11
-191.394778
 21
67.49048986
  0
LINE
  8
Ebene_2
 10
-160.586778
 20
-9.935510136
 11
-200.6866253
 21
-15.01776761
  0
LINE
  8
Ebene_2
 10
-160.198778
 20
-11.44751014
 11
-200.6866253
 21
-16.57894276
  0
LINE
  8
LAYER_75
 10
-179.262778
 20
-37.83151014
 11
-200.6866253
 21
-42.75423792
  0
LINE
  8
Ebene_2
 10
-200.6866253
 20
-49.86516273
 11
-191.562778
 21
-48.23151014
  0
LINE
  8
LAYER_76
 10
-185.904778
 20
-119.8095101
 11
-200.6866253
 21
-122.6190796
  0
LINE
  8
LAYER_77
 10
-182.8110854
 20
-136.0862005
 11
-200.6866253
 21
-139.2736193
  0
LINE
  8
Ebene_2
 10
-114.252764
 20
-190.5679561
 11
-109.3293204
 21
-210.0938108
  0
LINE
  8
Ebene_2
 10
-97.60072237
 20
-181.8424254
 11
-90.47713643
 21
-210.0938108
  0
ARC
  8
LAYER_77
 10
17.10250885
 20
-203.9592665
 40
79.8904457
 50
355.5960963
 51
3.961065497
  0
ARC
  8
LAYER_75
 10
800.3557801
 20
-339.8999574
 40
705.3496261
 50
167.9175853
 51
169.3953613
  0
LINE
  8
LAYER_74
 10
112.4172051
 20
-197.6308731
 11
110.3230499
 21
-210.0938108
  0
LINE
  8
LAYER_73
 10
114.842834
 20
-190.5679561
 11
111.5618924
 21
-210.0938108
  0
LINE
  8
LAYER_72
 10
127.137686
 20
-190.5679561
 11
123.4221283
 21
-210.0938108
  0
LINE
  8
LAYER_71
 10
134.2639913
 20
-194.8798081
 11
132.0650288
 21
-210.0938108
  0
LINE
  8
Ebene_2
 10
-191.852066
 20
190.5574079
 11
-195.3786934
 21
210.0938108
  0
LINE
  8
Ebene_2
 10
-184.5244716
 20
94.94358863
 11
-200.6866253
 21
159.3501093
  0
LINE
  8
Ebene_2
 10
-187.004778
 20
90.95048986
 11
-200.6866253
 21
145.6538114
  0
LINE
  8
Ebene_2
 10
-200.6866253
 20
73.7899663
 11
-196.654778
 21
75.02448986
  0
LINE
  8
LAYER_73
 10
-178.9850123
 20
134.0655893
 11
-200.6866253
 21
128.5463767
  0
LINE
  8
Konstruktion
 10
34.72403324
 20
69.12425321
 11
34.72403324
 21
66.47274072
  0
LINE
  8
Konstruktion
 10
25.00403324
 20
59.40425321
 11
44.44403324
 21
59.40425321
  0
LINE
  8
Konstruktion
 10
34.72403324
 20
59.40425321
 11
37.35328953
 21
61.99841826
  0
LINE
  8
Konstruktion
 10
34.72403324
 20
59.40425321
 11
32.11324103
 21
56.79150657
  0
LINE
  8
Konstruktion
 10
32.12912344
 20
62.03277449
 11
37.31894304
 21
56.77573194
  0
LINE
  8
Konstruktion
 10
34.72403324
 20
69.12425321
 11
35.12986828
 21
66.47274072
  0
LINE
  8
Konstruktion
 10
33.44838647
 20
60.69642324
 11
33.90062836
 21
63.68425482
  0
LINE
  8
Konstruktion
 10
33.44057875
 20
58.11983793
 11
34.72403324
 21
49.68425321
  0
LINE
  8
Konstruktion
 10
35.99968001
 20
58.11208319
 11
34.72403324
 21
49.68425321
  0
LINE
  8
Konstruktion
 10
36.0165646
 20
60.67953387
 11
44.44403324
 21
59.40425321
  0
LINE
  8
Konstruktion
 10
35.99968001
 20
58.11208319
 11
44.44403324
 21
59.40425321
  0
LINE
  8
Konstruktion
 10
33.44838647
 20
60.69642324
 11
25.00403324
 21
59.40425321
  0
LINE
  8
Konstruktion
 10
25.00403324
 20
59.40425321
 11
33.44057875
 21
58.11983793
  0
LINE
  8
Konstruktion
 10
37.35328953
 20
61.99841826
 11
36.84999545
 21
60.55341554
  0
LINE
  8
Konstruktion
 10
37.35328953
 20
61.99841826
 11
35.8894059
 21
61.51032184
  0
LINE
  8
Konstruktion
 10
32.12912344
 20
62.03277449
 11
32.61952298
 21
60.56958907
  0
LINE
  8
Konstruktion
 10
32.12912344
 20
62.03277449
 11
33.57450168
 21
61.52963001
  0
LINE
  8
Konstruktion
 10
37.31894304
 20
56.77573194
 11
35.87324456
 21
57.27676068
  0
LINE
  8
Konstruktion
 10
37.31894304
 20
56.77573194
 11
36.83068859
 21
58.23924561
  0
LINE
  8
Konstruktion
 10
32.11324103
 20
56.79150657
 11
33.56749849
 21
57.28565003
  0
LINE
  8
Konstruktion
 10
32.11324103
 20
56.79150657
 11
32.61061911
 21
58.24619449
  0
LINE
  8
Konstruktion
 10
32.12912344
 20
62.03277449
 11
33.44838647
 21
60.69642324
  0
LINE
  8
Konstruktion
 10
33.44838647
 20
60.69642324
 11
32.61952298
 21
60.56958907
  0
LINE
  8
Konstruktion
 10
32.61952298
 20
60.56958907
 11
32.61952298
 21
60.56958907
  0
LINE
  8
Konstruktion
 10
32.61952298
 20
60.56958907
 11
32.12912344
 21
62.03277449
  0
LINE
  8
Konstruktion
 10
37.35328953
 20
61.99841826
 11
35.8894059
 21
61.51032184
  0
LINE
  8
Konstruktion
 10
35.8894059
 20
61.51032184
 11
36.0165646
 21
60.67953387
  0
LINE
  8
Konstruktion
 10
36.0165646
 20
60.67953387
 11
36.0165646
 21
60.67953387
  0
LINE
  8
Konstruktion
 10
36.0165646
 20
60.67953387
 11
37.35328953
 21
61.99841826
  0
LINE
  8
Konstruktion
 10
34.72403324
 20
59.40425321
 11
34.72403324
 21
49.68425321
  0
LINE
  8
Konstruktion
 10
34.72403324
 20
49.68425321
 11
35.99968001
 21
58.11208319
  0
LINE
  8
Konstruktion
 10
35.99968001
 20
58.11208319
 11
35.99968001
 21
58.11208319
  0
LINE
  8
Konstruktion
 10
35.99968001
 20
58.11208319
 11
34.72403324
 21
59.40425321
  0
LINE
  8
Konstruktion
 10
35.99968001
 20
58.11208319
 11
37.31894304
 21
56.77573194
  0
LINE
  8
Konstruktion
 10
37.31894304
 20
56.77573194
 11
36.83068859
 21
58.23924561
  0
LINE
  8
Konstruktion
 10
36.83068859
 20
58.23924561
 11
36.83068859
 21
58.23924561
  0
LINE
  8
Konstruktion
 10
36.83068859
 20
58.23924561
 11
35.99968001
 21
58.11208319
  0
LINE
  8
Konstruktion
 10
32.11324103
 20
56.79150657
 11
33.44057875
 21
58.11983793
  0
LINE
  8
Konstruktion
 10
33.44057875
 20
58.11983793
 11
33.56749849
 21
57.28565003
  0
LINE
  8
Konstruktion
 10
33.56749849
 20
57.28565003
 11
33.56749849
 21
57.28565003
  0
LINE
  8
Konstruktion
 10
33.56749849
 20
57.28565003
 11
32.11324103
 21
56.79150657
  0
LINE
  8
Konstruktion
 10
34.72403324
 20
59.40425321
 11
36.0165646
 21
60.67953387
  0
LINE
  8
Konstruktion
 10
36.0165646
 20
60.67953387
 11
44.44403324
 21
59.40425321
  0
LINE
  8
Konstruktion
 10
44.44403324
 20
59.40425321
 11
44.44403324
 21
59.40425321
  0
LINE
  8
Konstruktion
 10
44.44403324
 20
59.40425321
 11
34.72403324
 21
59.40425321
  0
LINE
  8
Konstruktion
 10
25.00403324
 20
59.40425321
 11
34.72403324
 21
59.40425321
  0
LINE
  8
Konstruktion
 10
34.72403324
 20
59.40425321
 11
33.44057875
 21
58.11983793
  0
LINE
  8
Konstruktion
 10
33.44057875
 20
58.11983793
 11
33.44057875
 21
58.11983793
  0
LINE
  8
Konstruktion
 10
33.44057875
 20
58.11983793
 11
25.00403324
 21
59.40425321
  0
LINE
  8
Konstruktion
 10
34.32269703
 20
66.47274072
 11
35.12986828
 21
66.47274072
  0
LINE
  8
Konstruktion
 10
35.55666819
 20
63.68425482
 11
33.90062836
 21
63.68425482
  0
LINE
  8
Konstruktion
 10
35.55666819
 20
63.68425482
 11
36.0165646
 21
60.67953387
  0
LINE
  8
Konstruktion
 10
34.72403324
 20
63.68425482
 11
34.72403324
 21
49.68425321
  0
LINE
  8
Konstruktion
 10
34.32269703
 20
66.47274072
 11
34.72403324
 21
69.12425321
  0
LINE
  8
Konstruktion
 10
34.72403324
 20
69.12425321
 11
34.72403324
 21
66.47274072
  0
LINE
  8
Konstruktion
 10
34.72403324
 20
66.47274072
 11
34.32269703
 21
66.47274072
  0
LINE
  8
Konstruktion
 10
34.32269703
 20
66.47274072
 11
34.32269703
 21
66.47274072
  0
LINE
  8
Konstruktion
 10
34.32269703
 20
66.47274072
 11
34.72403324
 21
69.12425321
  0
LINE
  8
Konstruktion
 10
33.90062836
 20
63.68425482
 11
34.72403324
 21
63.68425482
  0
LINE
  8
Konstruktion
 10
34.72403324
 20
63.68425482
 11
33.44838647
 21
60.69642324
  0
LINE
  8
Konstruktion
 10
33.44838647
 20
60.69642324
 11
34.72403324
 21
59.40425321
  0
LINE
  8
Konstruktion
 10
34.72403324
 20
59.40425321
 11
33.90062836
 21
63.68425482
  0
LINE
  8
Konstruktion
 10
34.72403324
 20
63.68425482
 11
34.15640431
 21
62.35474912
  0
LINE
  8
Konstruktion
 10
34.15640431
 20
62.35474912
 11
34.72403324
 21
59.40425321
  0
LINE
  8
Konstruktion
 10
34.72403324
 20
59.40425321
 11
34.72403324
 21
59.40425321
  0
LINE
  8
Konstruktion
 10
34.72403324
 20
59.40425321
 11
34.72403324
 21
63.68425482
  0
LINE
  8
Konstruktion
 10
34.72403324
 20
59.40425321
 11
34.72403324
 21
59.40425321
  0
LINE
  8
Konstruktion
 10
34.72403324
 20
59.40425321
 11
33.90062836
 21
63.68425482
  0
LINE
  8
Konstruktion
 10
33.90062836
 20
63.68425482
 11
33.90062836
 21
63.68425482
  0
LINE
  8
Konstruktion
 10
33.90062836
 20
63.68425482
 11
34.72403324
 21
59.40425321
  0
LINE
  8
Konstruktion
 10
33.90062836
 20
63.68425482
 11
34.15640431
 21
62.35474912
  0
LINE
  8
Konstruktion
 10
34.15640431
 20
62.35474912
 11
33.44838647
 21
60.69642324
  0
LINE
  8
Konstruktion
 10
33.44838647
 20
60.69642324
 11
33.44838647
 21
60.69642324
  0
LINE
  8
Konstruktion
 10
33.44838647
 20
60.69642324
 11
33.90062836
 21
63.68425482
  0
LINE
  8
Konstruktion
 10
33.96342011
 20
64.09910184
 11
34.2601567
 21
66.05955484
  0
LINE
  8
Konstruktion
 10
34.23918668
 20
64.09687743
 11
33.96342011
 21
64.09910184
  0
LINE
  8
Konstruktion
 10
35.49444195
 20
64.09080836
 11
35.21993039
 21
64.07995366
  0
LINE
  8
Konstruktion
 10
35.18830304
 20
66.09095877
 11
35.49444195
 21
64.09080836
  0
LINE
  8
Konstruktion
 10
34.9123519
 20
66.08950954
 11
35.18830304
 21
66.09095877
  0
LINE
  8
Konstruktion
 10
34.2601567
 20
66.05955484
 11
34.53592408
 21
66.05733573
  0
LINE
  8
Konstruktion
 10
34.23918668
 20
64.09687743
 11
34.47057027
 21
65.62556197
  0
LINE
  8
Konstruktion
 10
34.9123519
 20
66.08950954
 11
35.09184643
 21
64.91678682
  0
LINE
  8
Konstruktion
 10
34.47057027
 20
65.62556197
 11
35.21993039
 21
64.07995366
  0
LINE
  8
Konstruktion
 10
34.53592408
 20
66.05733573
 11
35.09184643
 21
64.91678682
  0
LINE
  8
Konstruktion
 10
33.96342011
 20
64.09910184
 11
34.23918668
 21
64.09687743
  0
LINE
  8
Konstruktion
 10
34.23918668
 20
64.09687743
 11
34.53592408
 21
66.05733573
  0
LINE
  8
Konstruktion
 10
34.53592408
 20
66.05733573
 11
34.2601567
 21
66.05955484
  0
LINE
  8
Konstruktion
 10
34.2601567
 20
66.05955484
 11
33.96342011
 21
64.09910184
  0
LINE
  8
Konstruktion
 10
35.49444195
 20
64.09080836
 11
35.21993039
 21
64.07995366
  0
LINE
  8
Konstruktion
 10
35.21993039
 20
64.07995366
 11
34.9123519
 21
66.08950954
  0
LINE
  8
Konstruktion
 10
34.9123519
 20
66.08950954
 11
35.18830304
 21
66.09095877
  0
LINE
  8
Konstruktion
 10
35.18830304
 20
66.09095877
 11
35.49444195
 21
64.09080836
  0
LINE
  8
Konstruktion
 10
34.47057027
 20
65.62556197
 11
34.53592408
 21
66.05733573
  0
LINE
  8
Konstruktion
 10
34.53592408
 20
66.05733573
 11
35.09184643
 21
64.91678682
  0
LINE
  8
Konstruktion
 10
35.09184643
 20
64.91678682
 11
35.21993039
 21
64.07995366
  0
LINE
  8
Konstruktion
 10
35.21993039
 20
64.07995366
 11
34.47057027
 21
65.62556197
  0
ENDSEC
  0
EOF
